Oops, an error
Loading. Please wait.

Audioslave Bass Tab

version 1
version 1

Album

7,431 views 12 this week
4 commentsread comments
1 2 3 4 5
worth learning
x 6
add to favorites
launch autoscroll
font size
0
reset
guitar tuner
Autoscroll
slow
fast
+/-
esc
set tempo
stop
Help us to improve Ultimate-Guitar.com Take our survey!
×
Author
Band: Audioslave
Album: Audioslave
Tabbed by: TheMutts (halo2k@forerunners.org)


Note: I would like to thanks to authors for these tabs. NOTE: I (TheMutts)
do not take credit at all for these tabs. I simply compiled the most accurate
bass tabs and put this album together so you can find all the songs in here.

Tracks
1-Cochise
2-Show Me How To Live
3-Gasoline
4-What Are You
5-Like A Stone
6-Set It Off
7-Shadow On The Sun
8-I Am The Highway
9-Exploder
10-Hypnotize
11-Bring Em Back Alive
12-Light My Way
13-Getaway Car
14-The Last Remaining Light

////////////////////////////////////////////////////////////////////////////
1-Cochise

Intro (The bass doesn't come in for a few seconds)
G-----------------------------|
D-----------------------------|
A-----------------------------|
E-0-0-0-0-0-0-0-0-0-0-0-0-0-0-|
Repeat as Necessary

Verse
G-7/9-7---7--------7/9-7--------|
D-------9---9------------9------|
A-------------10-7---------10-7-|
E-------------------------------|
Repeat as Necessary

Leading Into Chorus
G-------|
D-7--8--|
A-5--6--|
E-------|

Chorus
G-----------------------|
D-----------------------|
A-7-7-5---------------5-|
E-------7-0-x-3--5--7---|
Repeat As Necessary

Bridge
G-2/4----2/4------2/4----2/4------2/4----2/4------2/4----2/4-----|
D----------------------------------------------------------------|
A-----2------2--------2------2--------2------2--------2------2---|
E----------------------------------------------------------------|

G----------------------------------------------------------------|
D----------------------------------------------------------------|
A-5/7----5/7------5/7----5/7------5/7----5/7------5/7----5/7-----|
E-----0------0--------0------0--------0------0--------0------0---|


2-Show Me How To Live

Tune: Drop D

Tab symbols:
x = dead note
h = hammer on
p = pull off
/ = slide up
 = slide down


Intro
|-------------------------------------------------------------|
|-------2-----------------------------------------------------|
|-----2---------------------------------x-0-------------------|
|-0-2------2-0--2---x-0--2---x-7h8p7--------2---2--5--0---0---|

|---------------------------------|
|-------2-------------------------|
|-----2---------------------------|
|-0-2------2-0--2---x-0--2--------| x2


Verse\'s the same as intro


Chorus
|-------------------------|
|-------------------------|
|-------------------5h7p5-|
|-2----5----2-0-2-0-------| x8


Verse x2
Chorus x8


Bridge riff no.1
|---------------------------|
|---------------------------|
|-2----/5----2p0------------|
|-----------------0----2-5--| x3


|-----------------------|
|-----------------------|
|-2----0----2--3--4--5--|
|-----------------------|


Bridge riff no.2
|-------------------------------|-------------------------------|
|-------------------------------|-------------------------------|
|-14----2----0h2p0--------------|-14----2----2h3p2--------------|
|-------------------0----2-5----|-------------------0----2-5----|

|-------------------------------|-------------------------------|
|-------------------------------|-------------------------------|
|-14----2----0h2p0--------------|-14----2----0-2--3--4--5--7----|
|-------------------2----x-5----|-------------------------------|


Rest for 4 bars!


Part Unknown
|----------------------------------------|
|----------------------------------------|
|----------------------------------------|
|-0-2--5----x-5h7--2----0-2--5----x-2----|

|--------------------------------------|
|--------------------------------------|
|--------------------------------------|
|-0-2--5----x-5h7--2----2--5----x-2----|

|----------------------------------------|
|----------------------------------------|
|----------------------------------------|
|-0-2--5----x-5h7--2----0-2--5----x-2----|

|----------------------|
|----------------------|
|----------------------|
|-0-2--5----x-2--------|


Chorus x8

The ending...
|-------------------------------------------------------------|
|-------------------------------------------------------------|
|-------------------------------------------------------------|
|-2--------2--------x-0----2--------2--------0--2h3--2--------|

|-------------------------------------|
|-------------------------------------|
|-------------------------------------|
|-2--------0--2h3--2--------2---------|

3-Gasoline

Drop B Tuning (Low to High: B  A  D  G  - The 10th fret on the E String is A)

Rest during Guitar Intro

INTRO (Distorted)                  |------------Repeat-1x------------|
G ---------------------------------|---------------------------------|
D ---------------------------------|---------------------------------|
A -----------------0h2-----2-------|-2---------------0h2-----2-------|
B -0-----0-3h5---0-----------------|---0---0-3h5---0-----------------|
   1 e + a 2 e + a 3 e + a 4 e + a | 1 e + a 2 e + a 3 e + a 4 e + a |

G ---------------------------------|
D ---------------------------------|
A ---------------------------------|
B -5-5-3-5-3-0-0---~---~---~---~---|
   1 e + a 2 e + a 3 + 4 + 5 + 6 + |

PREVERSE
 |------------Repeat-3x------------|
G ---------------------------------|
D ---------------------------------|
A -----------------0h2-----2-------|
B -0-----0-3h5---0-----------------|
   1 e + a 2 e + a 3 e + a 4 e + a |

VERSE (Play Twice)
 |------------Repeat-3x------------|
G ---------------------------------|
D ---------------------------------|
A -----------------0h2-----2-------|
B -0-----0-3h5---0-----------------|
   1 e + a 2 e + a 3 e + a 4 e + a |

G ---------------------------------|---------------------------------|
D -------------------------0-------|-------------------------2-------|
A -----------------0h2-------------|-----------------0h2-------------|
B -0-----0-3h5---0-----------------|-0-----0-3h5---0-----------------|
   1 e + a 2 e + a 3 e + a 4 e + a | 1 e + a 2 e + a 3 e + a 4 e + a |

 |------------Repeat-1x------------|
G ---------------------------------|
D ---------------------------------|
A -----------------0h2-----2-------|
B -0-----0-3h5---0-----------------|
   1 e + a 2 e + a 3 e + a 4 e + a |

FIRST CHORUS (Distorted)           |------------Repeat-2x------------|
G ---------------------------------|---------------------------------|
D ---------------------------------|---------------------------------|
A -----------------0h2-----2-------|-2---------------0h2-----2-------|
B -0-----0-3h5---0-----------------|---0---0-3h5---0-----------------|
   1 e + a 2 e + a 3 e + a 4 e + a | 1 e + a 2 e + a 3 e + a 4 e + a |

 |------------Repeat-2x------------|
G ---------------------------------|
D -----------------2-0-------------|
A ---------------------2-0-----0h2-|
B -0-----0-3h5---0-----------------|
   1 e + a 2 e + a 3 e + a 4 e + a |

G ---------------------------------|
D ---------------------------------|
A ---------------------------------|
B -5-5-3-5-3-0-0---~---~---~---~---|
   1 e + a 2 e + a 3 + 4 + 5 + 6 + |

Repeat VERSE

SECOND CHORUS (Distortion)         |------------Repeat-2x------------|
G ---------------------------------|---------------------------------|
D ---------------------------------|---------------------------------|
A -----------------0h2-----2-------|-2---------------0h2-----2-------|
B -0-----0-3h5---0-----------------|---0---0-3h5---0-----------------|
   1 e + a 2 e + a 3 e + a 4 e + a | 1 e + a 2 e + a 3 e + a 4 e + a |

 |------------Repeat-2x------------------------------------|
G ---------------------------------|-----------------------|
D -----------------2-0-------------|-2-0-------------------|
A ---------------------2-0-----0h2-|-----2-0---------------|
B -0-----0-3h5---0-----------------|---------5-5-0---~-----|
   1 e + a 2 e + a 3 e + a 4 e + a | 1 + 2 + 3 + 4 + 5 + |

PRESOLO (Rest for 4 Bars - Distortion)
 |------------------------------Repeat-1x----------------------------|
G ---------------------------------|---------------------------------|
D ---------------------------------|---------------------------------|
A ---------------------------------|-2-2-2-2-2-2-2-2-2-2-2-2-2-2-2-2-|
B -0-0-0-0-0-0-0-0-0-0-0-0-0-0-0-0-|---------------------------------|
   1 e + a 2 e + a 3 e + a 4 e + a | 1 e + a 2 e + a 3 e + a 4 e + a |

SOLO
G ---------------------------------|---------------------------------|
D ---------------------------------|---------------------------------|
A -----------------0h2-----2-------|-2-------2h5-----0h2-----2-------|
B -0-----0-3h5---0-----------------|---0---0-------0-----------------|
   1 e + a 2 e + a 3 e + a 4 e + a | 1 e + a 2 e + a 3 e + a 4 e + a |

G ---------------------------------|---------------------------------|
D ---------------------------------|---------------------------------|
A -2-------2h5-----0h2-----2-------|-2-------2h5-----7b--7-5-7b--7-5-|
B ---0---0-------0-----------------|---0---0-------0-----------------|
   1 e + a 2 e + a 3 e + a 4 e + a | 1 e + a 2 e + a 3 e + a 4 e + a |

G ---------------------------------|---------------------------------|
D ---------------------------------|---------------------------------|
A -----------------0h2-----2-------|-----------------0h2-----2-------|
B -5-5-3-5-3-0---0-----------------|-5-5-3-5-3-0---0-----------------|
   1 e + a 2 e + a 3 e + a 4 e + a | 1 e + a 2 e + a 3 e + a 4 e + a |

G ---------------------------------|---------------------------------|
D ---------------------------------|---------------------------------|
A -----------------0h2-----2-------|-----------------7b--7-5-7b--7-5-|
B -5-5-3-5-3-0---0-----------------|-5-5-3-5-3-0---0-----------------|
   1 e + a 2 e + a 3 e + a 4 e + a | 1 e + a 2 e + a 3 e + a 4 e + a |

BRIDGE (Rest for 8 Bars - Distortion)
 |--------------Repeat-1x------------|
G -----------------|-----------------|
D -----------------|-----------------|
A -----------------|-----------------|
B -3---------------|-0---------------|
   1 + 2 + 3 + 4 + | 1 + 2 + 3 + 4 + |

Repeat SECOND CHORUS

OUTRO (Distortion)
G ---------------------------------|---------------------|
D ---------------------------------|-2-0-----------------|
A -----------------0h2-----2-------|-----2-0-------------|
B -0-----0-3h5---0-----------------|---------5-5-0---~---|
   1 e + a 2 e + a 3 e + a 4 e + a | 1 + 2 + 3 + 4 + 5 + |

G ---------------------------------|-----------------|-----------------|
D ---------------------------------|-2-0-------------|-----------------|
A -----------------0h2-----2-------|-----2-0---------|-----------------|
B -0-----0-3h5---0-----------------|---------5-5-0---|-~---~---~---~---|
   1 e + a


4-What Are You

Verse 1
G|---------------------------------------------------------------------------------------|
D|---------------------------------------------------------------------------------------|
A|------------5---4-------------5---4---------------------7-7-7-7-7-7-7-7-5-5-5-5-5-5-5-5|
E|--5-7---0-----------5-7---0-----------5-7-7-7-7-7-7-7-7--------------------------------|

G|------------------------------------------------------------------------------------------|
D|-7-7-7-7-7-7-7-7--9-9-9-9-9-9-9-9-9-9-9-9-9-9-9-9-----------------------------------------|
A|--------------------------------------------------10-10-10-10-10-10-10-10-9-9-9-9-9-9-9-9-|
E|------------------------------------------------------------------------------------------|

Chorus 1
             X3
G|--------------------------------|-------------------------------|
D|--------------------------------|-------------------------------|
A|----------------------5-5-5-5-5-|-9-9-9-9-9-9-9-9-9-9-8-7--5--4-|
E|-7-7-7-7-2-2-2-2-0-0------------|-------------------------------|


Verse 2
G|------------------------------------------------------------------------------------------------|
D|------------------------------------------------------------------------------------------------|
A|-2-2-2-2-2-2-2-2-----------------5-5-5-5-5-5-5-5-4-4-4-4-4-4-4----------------------------------|
E|-----------------0-0-0-0-0-0-0-0-------------------------------5-7-7-7-7-7-7-7-7-0-0-0-0-0-0-0-0|

G|--------------------------------------------------------------------------------------------------|
D|----------------------------------------------------------------------------------7-7-7-7-7-7-7-7-|
A|-5-5-5-5-5-5-5-5--4-4-4-4-4-4-4-------------------7-7-7-7-7-7-7-7-5-5-5-5-5-5-5-5-----------------|
E|--------------------------------5-7-7-7-7-7-7-7-7-------------------------------------------------|

G|-------------------------------------------------------------------------|
D|9-9-9-9-9-9-9-9-9-9-9-9-9-9-9-9------------------------------------------|
A|---------------------------------10-10-10-10-10-10-10-10-9-9-9-9-9-9-9-9-|
E|-------------------------------------------------------------------------|

Chorus 2
             X3
G|--------------------------------|-------------------------------|
D|--------------------------------|-------------------------------|
A|----------------------5-5-5-5-5-|-9-9-9-9-9-9-9-9-9-9-8-7--5--4-|
E|-7-7-7-7-2-2-2-2-0-0------------|-------------------------------|

Bridge
G|----------------------------------------------------------------------7----------------------------------|
D|--------------------------------------------------------------797--797--97-----797-------------797-------|
A|---------------5-----------------5------------------5---------------------------------5---------------5--|
E|-7-7--5-7--5-7--7--7-7--5-7--5-7--7-5-7-7--5-7--5-7--7-5-7-7--------------7-7------575-5--7-7------057-5-|

G|------------------------------7--|
D|------797-------------797--797---|
A|-------------5-------------------|
E|-7-7------575-5--7-7-------------|
Then rest for awhile. Come back again at the last chorus.

Chorus 3/Outro
             X3
G|--------------------------------|---------------------------------|
D|--------------------------------|---------------------------------|
A|----------------------5-5-5-5-5-|-9-9-9-9-9-9-9-9-9-9-9-9-9-9-9-9-|
E|-7-7-7-7-2-2-2-2-0-0------------|---------------------------------|

             X3
G|--------------------------------|------------------------------------|
D|--------------------------------|------------------------------------|
A|----------------------5-5-5-5-5-|-9-9-9-9-9-9-9-9-9-9-8-7--5--4--2---|
E|-7-7-7-7-2-2-2-2-0-0------------|------------------------------------|


5-Like A Stone

Standard tuning (EADG)
I think this tab is quite close to the actual bass line, but some notes are
a bit off.

VERSE
|-----------------------------|
|-----------------------------|
|----5-5----5-5----5-5----8-5-|
|-3------3------3------3------|

CHORUS 1 (Part 1)
|---------------------------------|
|---------------------------------|
|----5-8--8-10-5----5-8-8-8-12-10-|
|-3--------------3----------------|

CHORUS 1 (Part 2)
|---------------------------------------|
|---------------------------------------|
|-6--8-5--8-10-5-6--8-5~----5-------5---|
|-----------------------------3-3-3-----|


CHORUS 2 (Part 1)
|---------------------------------|
|---------------------------------|
|----5-8--8-10-5----5-8-8-8-12-10-|
|-3--------------3----------------|

CHORUS 2 (Part 2)
|-------------------------------------------------------|
|-------------------------------------------------------|
|-6--8-5--8-10-5-6--8-5~----5-------5~----5-------5~----|
|-----------------------------3-3-3---------3-3-3-------|

SOLO (Part 1)
|--------------------------------------------|
|--------------------------------------------|
|---------------8--------------------8-12-10-|
|-3--5-6--6-6-6---5-3--3--5-6--6-6-6---------|

SOLO (Part 2)
|------------------------------------------------------------------|
|------------------------------------------------------------------|
|-66666666----------88888888----------6666666----------55555555----|
|----------33333333----------33333333---------33333333----------3~-|

ACOUSTIC PART (wait a couple of bars)
|-----------------------------|------------------|
|-----------------------------|------------------|
|-----------5--5--------------|-5555555555555555-|
|-5--5-7--7------5--5--5-7--7-|------------------|

End with chorus 2, then-

A|-6~-|


6-Set It Off

/ - slide up
\ - slide down
h - hammer on (punch down finger on note without striking string)
+ - play note constantly until next part

Standard tuning: E A D G

Intro:
------

G|----------------|----------------|
D|--------------7-|--------------7-|
A|-----------/9---|-----------/9---|
E|-0-2-0-2--------|-0-2-0-2--------| x3

G|----------------|
D|----------------|
A|-----------/9-7-|
E|-0-2-0-2--------| x1


G|----------------|----------------|
D|--------------7-|--------------7-|
A|-----------/9---|-----------/9---|
E|-0-2-0-2--------|-0-2-0-2--------| x3

G|------------------|
D|------------------|
A|-----------/9-7-0-|
E|-0-2-0-2----------| x1


Verse:
------

G|----------------------------|
D|----------------------------|
A|----------------------------|
E|-2-0-2-x-x-2-0-2--2-0-5-2-0-| x3


G|--------------------|
D|--------------------|
A|---------------/7---|
E|-2-0-2-x-x-2-0----5-| x1


Chorus:
-------

G|----------|-----------|
D|--------7-|-----------|
A|-----/9---|-9-7---7-9-|
E|-2--------|-----9-----| x3

G|------------|
D|------------|
A|-----/9-7-0-|
E|-2----------| x1

(repeat verse, chorus, intro)

Bridge:
-------

G|-----------------|
D|-----------------|
A|-----------------|
E|-2-2---2-2---2-2-| x4

G|------|------|------|------|------------------------|------|-------|
D|------|------|------|------|------------------------|------|-------|
A|------|------|------|------|------------------------|------|-------|
E|-3----|-3----|-5----|-2----|-0--0--0--0--0--0--0--0-|-12---|-\12---|


(repeat chorus, intro...)


7-Shadow On The Sun

5-String Bass

Guitar Intro- Rest for 11 ½ bars

Bass fill-
G-|---------|
D-|---------|
A-|-7h8p7-5-|
E-|---------|
B-|---------|

Verse 1- x8
G-|------------------------|
D-|-/9-9-9-9-9-------------|
A-|------------------------|
E-|------------------------|
B-|------------0---0-3-3-5-|

Chorus 1-
G-|---------------------------------------------------------|
D-|---------------------------------------------------------|
A-|---------------------------------------------------------|
E-|------------------------------------------------------/5-|
B-|-5--3--0---0-5-3-5--3--0---0-5-3-5--3--0---0-5-3-5—-3----|

Verse 2- x4
G-|----------------|
D-|-/9-9-9-9-9-----|
A-|----------------|
E-|----------------|
B-|------------0---|

Bass Fill x1
Verse 1 x8

Chorus 2-
G-|------------------------------------------------------|
D-|------------------------------------------------------|
A-|------------------------------------------------------|
E-|------------------------------------------------------|
B-|-5--3--0---0-5-3-5--3--0---0-5-3-5--3--0---0-5-3-5—-3—|

G-|----------------|
D-|----------------|
A-|----------------|
E-|----------------|
B-|-5-7-5--3-5-3-0-|

G-|---------------------------------------------------------|
D-|---------------------------------------------------------|
A-|---------------------------------------------------------|
E-|------------------------------------------------------/5-|
B-|-5--3--0---0-5-3-5--3--0---0-5-3-5--3--0---0-5-3-5—-3----|
Guitar Solo-
G-|----------------------------------------------|
D-|----------------------------------------------|
A-|-------------------55555555-----------------5-|
E-|-77777777-55555555----------5555555-----5-7---|
B-|------------------------------------5-7-------|

G-|------------------------------------|
D-|------------------------------------|
A-|-------------------55555555-7777777-|
E-|-77777777-55555555------------------|
B-|------------------------------------|

Chorus 1 x1

Bridge- x3
G-|------------------------------------|
D-|------------------------------------|
A-|-------------------55555555---------|
E-|-77777777-55555555----------5555555-|
B-|------------------------------------|

Bridge 2-
G-|------------------------------------|
D-|------------------------------------|
A-|-------------------55555555-7777777-|
E-|-77777777-55555555------------------|
B-|------------------------------------|

Chorus 2 x1

Outro- x12
G-|-----------------------|
D-|-----------------------|
A-|-----------------------|
E-|-/7\-----x-5-7---------|
B-|-----3-5-------x-3-5-0-|

Final Riff- x8
G-|-----------------|
D-|-----------------|
A-|-----------------|
E-|-----------------|
B-|-3-0-3-0-3-0-3-0-|

8-I Am The Highway

Intro:
play nothing

1st Verse
G|------------------------------------------------|
D|------------------------------------------------|
A|------------------------------------------------|
E|--5---55-5--05---55-5--05---55-5--05---55-5--0--|

                                                    1st  2nd
G|------------------------------------------------|-----|----|
D|o----------------------------------------------o|-----|----|
A|o------------3---33-3--3-----------------------o|-----|-23-|
E|--1---11-1--3--------------3---33-3--05---55-5--|--3--|----|

                                                    1st  2nd
G|------------------------------------------------|-----|----|
D|o----------------------------------------------o|-----|----|
A|o------------3-----------------------3---------o|-----|----|
E|--1---11-1--3--5---55-5-5-3---33-3--3--5---55-5-|--5--|----|

1st Chorus                             1st         2nd
G|--------------------------------|-----------|-----------|
D|o------------------------------o|-----------|-----------|
A|o-3---33-3------------5---55-5-o|----------2|5--/7--/7--|
E|-----------3---33-3-5-----------|-5---55-5--|-----------|

2nd Verse
G|------------------------------------------------|
D|------------------------------------------------|
A|------------------------------------------------|
E|--5---55-5--05---55-5--05---55-5--05---55-5--0--|

                                                   1st   2nd
G|------------------------------------------------|----|-----|
D|o----------------------------------------------o|----|-----|
A|o------------3---33-3--3-----------------------o|-23-|-----|
E|--1---11-1--3--------------3---33-3--05---55-5--|----|--3--|

                                                    1st  2nd
G|------------------------------------------------|-----|---|
D|o----------------------------------------------o|-----|---|
A|o------------3-----------------------3---------o|-----|---|
E|--1---11-1--3--5---55-5-5-3---33-3--3--5---55-5-|--5--|---|

2nd Chorus                             1st       2nd,3rd          4th
G|--------------------------------|-----------|-----------|--------------------|
D|o------------------------------o|-----------|-----------|--------------------|
A|o-3---33-3------------5---55-5-o|-----------|----------2|--/7--/7--/77777777-|
E|-----------3---33-3-5-----------|-5---55-5-3|-5---55-5--|--------------------|

Interlude
G|--------------------------------------------------------------------|
D|---------------------------------------------------------------7775-|
A|---------33333333-------------------------33333335------------------|
E|-11111111--------3333333357500000-11111113--------33333333-5555-----|

G|--------------------------------------------------------------------|
D|--------------------------------------------------------------------|
A|---------33333333----------------23--------33333333-----------------|
E|-11111113--------3333333355555555--11111111--------3333333355555555-|

3nd Chorus                             1st       2nd,3rd       4th
G|--------------------------------|-----------|-----------|-------------|
D|o------------------------------o|-----------|-----------|-------------|
A|o-3---33-3------------5---55-5-o|-----------|----------2|--/77777777--|
E|-----------3---33-3-5-----------|-5---55-5-3|-5---55-5--|-------------|
    4th cont
G|------------------------------------|
D|------------------------------------|
A|--/77777777--/77777777--/77777777\--|
E|------------------------------------|

Ending                                             2nd
G|------------------------------------------------|---|
D|o----------------------------------------------o|---|
A|o----------------------------------------------o|---|
E|--5---55-5--05---55-5--05---55-5--05---55-5--0--|-5-|

9-Exploder

Intro (just guitar playing)

Verse1:

G|-------------------------|
D|-4----------4------------|
A|-------------------------|
E|---2-0-2--0---2-0-2--0---| 8x

Chorus1:

G|-------------------------|
D|-4----------4------------|
A|-------------------------|
E|---2-0-2--0---2-0-2--0---|

G|-----------------------------|
D|-4----------4----------------|
A|-----------------------------|
E|---2-0-2--0---2-0-2--0--2^---| 4X

Verse2:

G|-------------------------|
D|-4----------4------------|
A|-------------------------|
E|---2-0-2--0---2-0-2--0---| 12x

Chorus2:

G|-------------------------|
D|-4----------4------------|
A|-------------------------|
E|---2-0-2--0---2-0-2--0---|

G|-----------------------------|
D|-4----------4----------------|
A|-----------------------------|
E|---2-0-2--0---2-0-2--0--2^---| 4X

Guitar Solo:

G|----------------------------|
D|-4------------4-------------|
A|----------------------------|
E|---2-0-2--0---2-0-2--0-0~---|

G|----------------------------|
D|-4----------4---------------|
A|----------------------------|
E|---2-0-2--0---2-0-2--0-3~---| 4x

Verse3: (not exact number of times, just listen, you will get it)

G|--------------------|
D|-4444444444444444---|
A|--------------------|
E|--------------------|

G|--------------------|
D|-2222222222222222---|
A|--------------------|
E|--------------------| x2

Chorus3:

G|-------------------------|
D|-4----------4------------|
A|-------------------------|
E|---2-0-2--0---2-0-2--0---|

G|-----------------------------|
D|-4----------4----------------|
A|-----------------------------|
E|---2-0-2--0---2-0-2--0--2^---| 4X

Outro: (after Chris Cornell chants da un du da dum 4x)
G|--------------------|
D|--------------------|
A|--------------------|
E|-2--2--2--2--2--2---|

10-Hypnotizer

The majority of the song is the first riff, the timing changes
slightly from the intro to the verse. I'm not sure if the bridge and
the end are done on bass or if Tom kicks it down an octave with his
whammy, but either way, the notes are right. Easy song, just listen
for timing, and follow the guitar in the last chorus.

 Main Riff:
D|-----------------------|
A|------5---5------------|
E|--/7----7----7\--------|
B|-----------------0~~---|

 Bridge:
D|------------------------------------------------------------------|
A|------------------------------------------------------------------|
E|-7-7-7-7-7-7-7-7-7-7-7-7-7-7-7-7--5-5-5-5-5-5-5-5-5-5-5-5-5-5-5-5-|
B|------------------------------------------------------------------|

 Last Chorus:
D|----------------------------------------------|
A|------5---5------5---5------5---5-------------|
E|--/7----7-----7----7-----7----7---7\----------|
B|--------------------------------------0~~-----|

 End:
D|-----------------------------------------------------|
A|-----------------------------------------------------|
E|-7-7-7-7-7-7-7-7-7-7-7-7-x-x-x-x-x-x-x-x-x-x-(fade)--|
B|-----------------------------------------------------|

11-Bring Em Back Alive

Tuning: B-E-A-D

Intro:
D|----------------------------|
A|----------------------------|
E|-----7---4/5----1---0-------|
B|--0----0-----0----0----0-3--| (x4)

 Rest

D|------------------------------------------------------------------/14-14-14-14--|
A|--------------------------------------------------------------------------------|
E|--0-0-0-0-0-0-0-0-0-0-0-0-0-0-0-0-0-0-0-0-0-0-0-0-0-0-0-0-0-0-0-0---------------|
B|--------------------------------------------------------------------------------|

D|--------------------------------------------------------|
A|--------------------------------------------------------|
E|-----7---4/5--------------------5---4/5-----------------|
B|--0----0-----0--6-0-5--0-3---3----0-----3-5-6-0-5--3-5--| (x4)


Verse 1:
D|---------------------------|
A|---------------------------|
E|---------6------5-------3--|
B|--5-3--x---5--x---5--x-x---| (x12)


Chorus:
D|--------------------------------------------------------|
A|--------------------------------------------------------|
E|-----7---4/5--------------------5---4/5-----------------|
B|--0----0-----0--6-0-5--0-3---3----0-----3-5-6-0-5--3-5--| (x4)


Verse 1:
D|---------------------------|
A|---------------------------|
E|---------6------5-------3--|
B|--5-3--x---5--x---5--x-x---| (x10)


Chorus:
D|--------------------------------------------------------|
A|--------------------------------------------------------|
E|-----7---4/5--------------------5---4/5-----------------|
B|--0----0-----0--6-0-5--0-3---3----0-----3-5-6-0-5--3-5--| (x3)

D|--------------------------------------------------------|
A|--------------------------------------------------------|
E|-----7---4/5--------------------------------------------|
B|--0----0-----0--6-0-5--0-3---3-5-6-0-5--3-5-6-0-5--3-5--|


Guitar Solo:
D|---------------------------------------------------------------|
A|---------------------------------------------------------------|
E|--0-0-0-0-0-0-0-0-0-0-0-0-0-0-0-0-0-0-0-0-0-0-0-0-0-0-0-0-0-0--|
B|---------------------------------------------------------------|

D|------------------------------------------19-19-19-------------|
A|---------------------------------------------------18h19-18h19-|
E|--0-0-0-0-0-0-0-0-0-0-0-0-0-0-0-0-0-0-0-0----------------------|
B|---------------------------------------------------------------|

D|---------------------------------------------------------------|
A|---------------------------------------------------------------|
E|--0-0-0-0-0-0-0-0-0-0-0-0-0-0-0-0-0-0-0-0-0-0-0-0-0-0-0-0-0-0--|
B|---------------------------------------------------------------|

D|------------------------------------------19-19-19-19-19-19--|
A|-------------------------------------------------------------|
E|--0-0-0-0-0-0-0-0-0-0-0-0-0-0-0-0-0-0-0-0--------------------|
B|-------------------------------------------------------------|

D|--------------------------------------------------------|
A|--------------------------------------------------------|
E|--7-5-7----7-5-7----7-5-7----7-5-7----7-5-7----7-5-7----|
B|--------6--------5--------3--------6--------5--------3--| (x2)

D|--------------------------------------------------------|
A|------5--------5--------5--------5--------5--------5----|
E|--7-5------7-5------7-5------7-5------7-5------7-5------|
B|--------6--------5--------3--------6--------5--------3--| (x2)

 Rest

D|-------------------------------|
A|-------------------------------|
E|--0-0-----0-0-----0-0-----0-0--|
B|-------------------------------|

D|------------------------------------------------------------------/14-14-14-14--|
A|--------------------------------------------------------------------------------|
E|--0-0-0-0-0-0-0-0-0-0-0-0-0-0-0-0-0-0-0-0-0-0-0-0-0-0-0-0-0-0-0-0---------------|
B|--------------------------------------------------------------------------------|


Chorus/Outro:
D|--------------------------------------------------------|
A|--------------------------------------------------------|
E|-----7---4/5--------------------5---4/5-----------------|
B|--0----0-----0--6-0-5--0-3---3----0-----3-5-6-0-5--3-5--| (x3)

D|------------------------------------------------------------------|
A|------------------------------------------------------------------|
E|-----7---4/5------------------------------------------------------|
B|--0----0-----0--6-0-5--0-3---3-5-6-0-5--3-5-6-0-5--3-5--3-5--3-5--|


12-Light My Way

Tuning low to high ? D,A,D,G

(No bass ?til 0:21)
INTRO/CHORUS
G-----------------------------------|
D----------0------------------------|
A--------3---3--------------3-------|
D-0-0--00-------0-0-00-3-5----------|

VERSE
G-----------------------------------|
D----------0-3----------------------|
A-----------------------------------|
D-00-3-0--------00-3-0-3-2----------|
Part of the verse gets cut off right before the chorus, just listen to get it right

BRIDGE		    HEAVIER PART OF BRIDGE
G-----------------            ----------------------|
D----0----0-------            -----0---0-----0---0--|
A--3----3---------            ---3---3-----3---3----|
D-----------------            ----------0-----------|

That should do it.  Play along with the CD to perfect the amount of times you play each, 
you?ll get it


13-Getaway Car

Key: D minor
Tuning: Standard 5 string

Verse
G-------------------------------------------||
D------------------------------------------*||
A-------------------------------------------||
E--3---5-6----------------------3--5-------*||
B----------5-6--5-5-5--3-3--5-6------5-5-6--||

Chorus
G--------------------|---|-9-|
D------------5---7~-*|-7-|---|
A--3~---5~-----------|-0-|---|
E-------------------*|---|---|
B--------------------|---|---|
		       ^Pick one or play both w/e sounds best
Bridge		     3x
G----------------------|------|
D--------------5---7--*|------|
A--3~-----5~-----------|------|
E-----3-5----5--------*|--09\-| Play sround within the scale i dont know
B----------------------|------| the whole bridge i just improve it
			  ^ the 0 is like a grace note


14-The Last Remaining Light

*notes* The F at the beginging of the verse is sometimes left out,
listen for changes...

 Intro/Bridge:
G|-7--------6--------5--------4-----------------------------|
D|---7-5-7----7-5-3----5-3-5----5-3-------------------------|
A|----------------------------------------------3--------5~-|
E|----------------------------------5--6-3-1-3----3-1-3-----|
B|----------------------------------------------------------|

 Verse:
G|-----------------------------------------------------------|
D|-----------------------------------------------------------|
A|----/5-------------/3-----------/5------/7--------/3-------|
E|-1-----3-5--0-3-5-----3-1--3-1-----3-5-----3-5-------1--3--|
B|-----------------------------------------------------------|

 Verse End: 1&2
G|-----|--------|
D|-----|--------|
A|-----|--------|
E|--1--|--------|
B|-----|--3~~~~~|

 Interlude:
G|---------------------------------------|
D|---------------------------------------|
A|-5----------4--------3-----------------|
E|----3-5--------3--------1---------1----|
B|-------------------------------0-------|

  Chorus:                End:                  x3 then:
G|---------------------||------------------------|----------|
D|---------------------||------------------------|----------|
A|---------------------||------------------------|----------|
E|-1~---0~--------3~---||-7~-----3-3-3-3-3-3-3-3-|----7~~~~-|
B|-----------0~--------||------------------------|----------|

Structure:
Intro	x1
Verse w/ end 1
Verse w/ end 2
Rest
Verse w/ end 1
Verse w/ end 2
Rest
Interlude x2
Verse w/ end 1
Verse
Chorus x3 end with E|-/7-|
Bridge w/ verse end 1
Bridge
Chorus x3
End

The end......

-provided by TheMuttsBand: Audioslave
Album: Audioslave
Tabbed by: TheMutts (halo2k@forerunners.org)


Note: I would like to thanks to authors for these tabs. NOTE: I (TheMutts)
do not take credit at all for these tabs. I simply compiled the most accurate
bass tabs and put this album together so you can find all the songs in here.

Tracks
1-Cochise
2-Show Me How To Live
3-Gasoline
4-What Are You
5-Like A Stone
6-Set It Off
7-Shadow On The Sun
8-I Am The Highway
9-Exploder
10-Hypnotize
11-Bring Em Back Alive
12-Light My Way
13-Getaway Car
14-The Last Remaining Light

////////////////////////////////////////////////////////////////////////////
1-Cochise

Intro (The bass doesn't come in for a few seconds)
G-----------------------------|
D-----------------------------|
A-----------------------------|
E-0-0-0-0-0-0-0-0-0-0-0-0-0-0-|
Repeat as Necessary

Verse
G-7/9-7---7--------7/9-7--------|
D-------9---9------------9------|
A-------------10-7---------10-7-|
E-------------------------------|
Repeat as Necessary

Leading Into Chorus
G-------|
D-7--8--|
A-5--6--|
E-------|

Chorus
G-----------------------|
D-----------------------|
A-7-7-5---------------5-|
E-------7-0-x-3--5--7---|
Repeat As Necessary

Bridge
G-2/4----2/4------2/4----2/4------2/4----2/4------2/4----2/4-----|
D----------------------------------------------------------------|
A-----2------2--------2------2--------2------2--------2------2---|
E----------------------------------------------------------------|

G----------------------------------------------------------------|
D----------------------------------------------------------------|
A-5/7----5/7------5/7----5/7------5/7----5/7------5/7----5/7-----|
E-----0------0--------0------0--------0------0--------0------0---|


2-Show Me How To Live

Tune: Drop D

Tab symbols:
x = dead note
h = hammer on
p = pull off
/ = slide up
 = slide down


Intro
|-------------------------------------------------------------|
|-------2-----------------------------------------------------|
|-----2---------------------------------x-0-------------------|
|-0-2------2-0--2---x-0--2---x-7h8p7--------2---2--5--0---0---|

|---------------------------------|
|-------2-------------------------|
|-----2---------------------------|
|-0-2------2-0--2---x-0--2--------| x2


Verse\'s the same as intro


Chorus
|-------------------------|
|-------------------------|
|-------------------5h7p5-|
|-2----5----2-0-2-0-------| x8


Verse x2
Chorus x8


Bridge riff no.1
|---------------------------|
|---------------------------|
|-2----/5----2p0------------|
|-----------------0----2-5--| x3


|-----------------------|
|-----------------------|
|-2----0----2--3--4--5--|
|-----------------------|


Bridge riff no.2
|-------------------------------|-------------------------------|
|-------------------------------|-------------------------------|
|-14----2----0h2p0--------------|-14----2----2h3p2--------------|
|-------------------0----2-5----|-------------------0----2-5----|

|-------------------------------|-------------------------------|
|-------------------------------|-------------------------------|
|-14----2----0h2p0--------------|-14----2----0-2--3--4--5--7----|
|-------------------2----x-5----|-------------------------------|


Rest for 4 bars!


Part Unknown
|----------------------------------------|
|----------------------------------------|
|----------------------------------------|
|-0-2--5----x-5h7--2----0-2--5----x-2----|

|--------------------------------------|
|--------------------------------------|
|--------------------------------------|
|-0-2--5----x-5h7--2----2--5----x-2----|

|----------------------------------------|
|----------------------------------------|
|----------------------------------------|
|-0-2--5----x-5h7--2----0-2--5----x-2----|

|----------------------|
|----------------------|
|----------------------|
|-0-2--5----x-2--------|


Chorus x8

The ending...
|-------------------------------------------------------------|
|-------------------------------------------------------------|
|-------------------------------------------------------------|
|-2--------2--------x-0----2--------2--------0--2h3--2--------|

|-------------------------------------|
|-------------------------------------|
|-------------------------------------|
|-2--------0--2h3--2--------2---------|

3-Gasoline

Drop B Tuning (Low to High: B  A  D  G  - The 10th fret on the E String is A)

Rest during Guitar Intro

INTRO (Distorted)                  |------------Repeat-1x------------|
G ---------------------------------|---------------------------------|
D ---------------------------------|---------------------------------|
A -----------------0h2-----2-------|-2---------------0h2-----2-------|
B -0-----0-3h5---0-----------------|---0---0-3h5---0-----------------|
   1 e + a 2 e + a 3 e + a 4 e + a | 1 e + a 2 e + a 3 e + a 4 e + a |

G ---------------------------------|
D ---------------------------------|
A ---------------------------------|
B -5-5-3-5-3-0-0---~---~---~---~---|
   1 e + a 2 e + a 3 + 4 + 5 + 6 + |

PREVERSE
 |------------Repeat-3x------------|
G ---------------------------------|
D ---------------------------------|
A -----------------0h2-----2-------|
B -0-----0-3h5---0-----------------|
   1 e + a 2 e + a 3 e + a 4 e + a |

VERSE (Play Twice)
 |------------Repeat-3x------------|
G ---------------------------------|
D ---------------------------------|
A -----------------0h2-----2-------|
B -0-----0-3h5---0-----------------|
   1 e + a 2 e + a 3 e + a 4 e + a |

G ---------------------------------|---------------------------------|
D -------------------------0-------|-------------------------2-------|
A -----------------0h2-------------|-----------------0h2-------------|
B -0-----0-3h5---0-----------------|-0-----0-3h5---0-----------------|
   1 e + a 2 e + a 3 e + a 4 e + a | 1 e + a 2 e + a 3 e + a 4 e + a |

 |------------Repeat-1x------------|
G ---------------------------------|
D ---------------------------------|
A -----------------0h2-----2-------|
B -0-----0-3h5---0-----------------|
   1 e + a 2 e + a 3 e + a 4 e + a |

FIRST CHORUS (Distorted)           |------------Repeat-2x------------|
G ---------------------------------|---------------------------------|
D ---------------------------------|---------------------------------|
A -----------------0h2-----2-------|-2---------------0h2-----2-------|
B -0-----0-3h5---0-----------------|---0---0-3h5---0-----------------|
   1 e + a 2 e + a 3 e + a 4 e + a | 1 e + a 2 e + a 3 e + a 4 e + a |

 |------------Repeat-2x------------|
G ---------------------------------|
D -----------------2-0-------------|
A ---------------------2-0-----0h2-|
B -0-----0-3h5---0-----------------|
   1 e + a 2 e + a 3 e + a 4 e + a |

G ---------------------------------|
D ---------------------------------|
A ---------------------------------|
B -5-5-3-5-3-0-0---~---~---~---~---|
   1 e + a 2 e + a 3 + 4 + 5 + 6 + |

Repeat VERSE

SECOND CHORUS (Distortion)         |------------Repeat-2x------------|
G ---------------------------------|---------------------------------|
D ---------------------------------|---------------------------------|
A -----------------0h2-----2-------|-2---------------0h2-----2-------|
B -0-----0-3h5---0-----------------|---0---0-3h5---0-----------------|
   1 e + a 2 e + a 3 e + a 4 e + a | 1 e + a 2 e + a 3 e + a 4 e + a |

 |------------Repeat-2x------------------------------------|
G ---------------------------------|-----------------------|
D -----------------2-0-------------|-2-0-------------------|
A ---------------------2-0-----0h2-|-----2-0---------------|
B -0-----0-3h5---0-----------------|---------5-5-0---~-----|
   1 e + a 2 e + a 3 e + a 4 e + a | 1 + 2 + 3 + 4 + 5 + |

PRESOLO (Rest for 4 Bars - Distortion)
 |------------------------------Repeat-1x----------------------------|
G ---------------------------------|---------------------------------|
D ---------------------------------|---------------------------------|
A ---------------------------------|-2-2-2-2-2-2-2-2-2-2-2-2-2-2-2-2-|
B -0-0-0-0-0-0-0-0-0-0-0-0-0-0-0-0-|---------------------------------|
   1 e + a 2 e + a 3 e + a 4 e + a | 1 e + a 2 e + a 3 e + a 4 e + a |

SOLO
G ---------------------------------|---------------------------------|
D ---------------------------------|---------------------------------|
A -----------------0h2-----2-------|-2-------2h5-----0h2-----2-------|
B -0-----0-3h5---0-----------------|---0---0-------0-----------------|
   1 e + a 2 e + a 3 e + a 4 e + a | 1 e + a 2 e + a 3 e + a 4 e + a |

G ---------------------------------|---------------------------------|
D ---------------------------------|---------------------------------|
A -2-------2h5-----0h2-----2-------|-2-------2h5-----7b--7-5-7b--7-5-|
B ---0---0-------0-----------------|---0---0-------0-----------------|
   1 e + a 2 e + a 3 e + a 4 e + a | 1 e + a 2 e + a 3 e + a 4 e + a |

G ---------------------------------|---------------------------------|
D ---------------------------------|---------------------------------|
A -----------------0h2-----2-------|-----------------0h2-----2-------|
B -5-5-3-5-3-0---0-----------------|-5-5-3-5-3-0---0-----------------|
   1 e + a 2 e + a 3 e + a 4 e + a | 1 e + a 2 e + a 3 e + a 4 e + a |

G ---------------------------------|---------------------------------|
D ---------------------------------|---------------------------------|
A -----------------0h2-----2-------|-----------------7b--7-5-7b--7-5-|
B -5-5-3-5-3-0---0-----------------|-5-5-3-5-3-0---0-----------------|
   1 e + a 2 e + a 3 e + a 4 e + a | 1 e + a 2 e + a 3 e + a 4 e + a |

BRIDGE (Rest for 8 Bars - Distortion)
 |--------------Repeat-1x------------|
G -----------------|-----------------|
D -----------------|-----------------|
A -----------------|-----------------|
B -3---------------|-0---------------|
   1 + 2 + 3 + 4 + | 1 + 2 + 3 + 4 + |

Repeat SECOND CHORUS

OUTRO (Distortion)
G ---------------------------------|---------------------|
D ---------------------------------|-2-0-----------------|
A -----------------0h2-----2-------|-----2-0-------------|
B -0-----0-3h5---0-----------------|---------5-5-0---~---|
   1 e + a 2 e + a 3 e + a 4 e + a | 1 + 2 + 3 + 4 + 5 + |

G ---------------------------------|-----------------|-----------------|
D ---------------------------------|-2-0-------------|-----------------|
A -----------------0h2-----2-------|-----2-0---------|-----------------|
B -0-----0-3h5---0-----------------|---------5-5-0---|-~---~---~---~---|
   1 e + a


4-What Are You

Verse 1
G|---------------------------------------------------------------------------------------|
D|---------------------------------------------------------------------------------------|
A|------------5---4-------------5---4---------------------7-7-7-7-7-7-7-7-5-5-5-5-5-5-5-5|
E|--5-7---0-----------5-7---0-----------5-7-7-7-7-7-7-7-7--------------------------------|

G|------------------------------------------------------------------------------------------|
D|-7-7-7-7-7-7-7-7--9-9-9-9-9-9-9-9-9-9-9-9-9-9-9-9-----------------------------------------|
A|--------------------------------------------------10-10-10-10-10-10-10-10-9-9-9-9-9-9-9-9-|
E|------------------------------------------------------------------------------------------|

Chorus 1
             X3
G|--------------------------------|-------------------------------|
D|--------------------------------|-------------------------------|
A|----------------------5-5-5-5-5-|-9-9-9-9-9-9-9-9-9-9-8-7--5--4-|
E|-7-7-7-7-2-2-2-2-0-0------------|-------------------------------|


Verse 2
G|------------------------------------------------------------------------------------------------|
D|------------------------------------------------------------------------------------------------|
A|-2-2-2-2-2-2-2-2-----------------5-5-5-5-5-5-5-5-4-4-4-4-4-4-4----------------------------------|
E|-----------------0-0-0-0-0-0-0-0-------------------------------5-7-7-7-7-7-7-7-7-0-0-0-0-0-0-0-0|

G|---------------------------------------------------------------------------------|
D|---------------------------------------------------------------------------------|
A|-5-5-5-5-5-5-5-5--4-4-4-4-4-4-4-------------------7-7-7-7-7-7-7-7-5-5-5-5-5-5-5-5|
E|--------------------------------5-7-7-7-7-7-7-7-7--------------------------------|

G|------------------------------------------------------------------------------------------|
D|-7-7-7-7-7-7-7-7-9-9-9-9-9-9-9-9-9-9-9-9-9-9-9-9------------------------------------------|
A|--------------------------------------------------10-10-10-10-10-10-10-10-9-9-9-9-9-9-9-9-|
E|------------------------------------------------------------------------------------------|

Chorus 2
             X3
G|--------------------------------|-------------------------------|
D|--------------------------------|-------------------------------|
A|----------------------5-5-5-5-5-|-9-9-9-9-9-9-9-9-9-9-8-7--5--4-|
E|-7-7-7-7-2-2-2-2-0-0------------|-------------------------------|

Bridge
G|----------------------------------------------------------------------7----------------------------------|
D|--------------------------------------------------------------797--797--97-----797-------------797-------|
A|---------------5-----------------5------------------5---------------------------------5---------------5--|
E|-7-7--5-7--5-7--7--7-7--5-7--5-7--7-5-7-7--5-7--5-7--7-5-7-7--------------7-7------575-5--7-7------057-5-|

G|------------------------------7--|
D|------797-------------797--797---|
A|-------------5-------------------|
E|-7-7------575-5--7-7-------------|
Then rest for awhile. Come back again at the last chorus.

Chorus 3/Outro
             X3
G|--------------------------------|---------------------------------|
D|--------------------------------|---------------------------------|
A|----------------------5-5-5-5-5-|-9-9-9-9-9-9-9-9-9-9-9-9-9-9-9-9-|
E|-7-7-7-7-2-2-2-2-0-0------------|---------------------------------|

             X3
G|--------------------------------|------------------------------------|
D|--------------------------------|------------------------------------|
A|----------------------5-5-5-5-5-|-9-9-9-9-9-9-9-9-9-9-8-7--5--4--2---|
E|-7-7-7-7-2-2-2-2-0-0------------|------------------------------------|


5-Like A Stone

Standard tuning (EADG)
I think this tab is quite close to the actual bass line, but some notes are
a bit off.

VERSE
|-----------------------------|
|-----------------------------|
|----5-5----5-5----5-5----8-5-|
|-3------3------3------3------|

CHORUS 1 (Part 1)
|---------------------------------|
|---------------------------------|
|----5-8--8-10-5----5-8-8-8-12-10-|
|-3--------------3----------------|

CHORUS 1 (Part 2)
|---------------------------------------|
|---------------------------------------|
|-6--8-5--8-10-5-6--8-5~----5-------5---|
|-----------------------------3-3-3-----|


CHORUS 2 (Part 1)
|---------------------------------|
|---------------------------------|
|----5-8--8-10-5----5-8-8-8-12-10-|
|-3--------------3----------------|

CHORUS 2 (Part 2)
|-------------------------------------------------------|
|-------------------------------------------------------|
|-6--8-5--8-10-5-6--8-5~----5-------5~----5-------5~----|
|-----------------------------3-3-3---------3-3-3-------|

SOLO (Part 1)
|--------------------------------------------|
|--------------------------------------------|
|---------------8--------------------8-12-10-|
|-3--5-6--6-6-6---5-3--3--5-6--6-6-6---------|

SOLO (Part 2)
|------------------------------------------------------------------|
|------------------------------------------------------------------|
|-66666666----------88888888----------6666666----------55555555----|
|----------33333333----------33333333---------33333333----------3~-|

ACOUSTIC PART (wait a couple of bars)
|-----------------------------|------------------|
|-----------------------------|------------------|
|-----------5--5--------------|-5555555555555555-|
|-5--5-7--7------5--5--5-7--7-|------------------|

End with chorus 2, then-

A|-6~-|


6-Set It Off

/ - slide up
\ - slide down
h - hammer on (punch down finger on note without striking string)
+ - play note constantly until next part

Standard tuning: E A D G

Intro:
------

G|----------------|----------------|
D|--------------7-|--------------7-|
A|-----------/9---|-----------/9---|
E|-0-2-0-2--------|-0-2-0-2--------| x3

G|----------------|
D|----------------|
A|-----------/9-7-|
E|-0-2-0-2--------| x1


G|----------------|----------------|
D|--------------7-|--------------7-|
A|-----------/9---|-----------/9---|
E|-0-2-0-2--------|-0-2-0-2--------| x3

G|------------------|
D|------------------|
A|-----------/9-7-0-|
E|-0-2-0-2----------| x1


Verse:
------

G|----------------------------|
D|----------------------------|
A|----------------------------|
E|-2-0-2-x-x-2-0-2--2-0-5-2-0-| x3


G|--------------------|
D|--------------------|
A|---------------/7---|
E|-2-0-2-x-x-2-0----5-| x1


Chorus:
-------

G|----------|-----------|
D|--------7-|-----------|
A|-----/9---|-9-7---7-9-|
E|-2--------|-----9-----| x3

G|------------|
D|------------|
A|-----/9-7-0-|
E|-2----------| x1

(repeat verse, chorus, intro)

Bridge:
-------

G|-----------------|
D|-----------------|
A|-----------------|
E|-2-2---2-2---2-2-| x4

G|------|------|------|------|------------------------|------|-------|
D|------|------|------|------|------------------------|------|-------|
A|------|------|------|------|------------------------|------|-------|
E|-3----|-3----|-5----|-2----|-0--0--0--0--0--0--0--0-|-12---|-\12---|


(repeat chorus, intro...)


7-Shadow On The Sun

5-String Bass

Guitar Intro- Rest for 11 ½ bars

Bass fill-
G-|---------|
D-|---------|
A-|-7h8p7-5-|
E-|---------|
B-|---------|

Verse 1- x8
G-|------------------------|
D-|-/9-9-9-9-9-------------|
A-|------------------------|
E-|------------------------|
B-|------------0---0-3-3-5-|

Chorus 1-
G-|---------------------------------------------------------|
D-|---------------------------------------------------------|
A-|---------------------------------------------------------|
E-|------------------------------------------------------/5-|
B-|-5--3--0---0-5-3-5--3--0---0-5-3-5--3--0---0-5-3-5—-3----|

Verse 2- x4
G-|----------------|
D-|-/9-9-9-9-9-----|
A-|----------------|
E-|----------------|
B-|------------0---|

Bass Fill x1
Verse 1 x8

Chorus 2-
G-|------------------------------------------------------|
D-|------------------------------------------------------|
A-|------------------------------------------------------|
E-|------------------------------------------------------|
B-|-5--3--0---0-5-3-5--3--0---0-5-3-5--3--0---0-5-3-5—-3—|

G-|----------------|
D-|----------------|
A-|----------------|
E-|----------------|
B-|-5-7-5--3-5-3-0-|

G-|---------------------------------------------------------|
D-|---------------------------------------------------------|
A-|---------------------------------------------------------|
E-|------------------------------------------------------/5-|
B-|-5--3--0---0-5-3-5--3--0---0-5-3-5--3--0---0-5-3-5—-3----|
Guitar Solo-
G-|----------------------------------------------|
D-|----------------------------------------------|
A-|-------------------55555555-----------------5-|
E-|-77777777-55555555----------5555555-----5-7---|
B-|------------------------------------5-7-------|

G-|------------------------------------|
D-|------------------------------------|
A-|-------------------55555555-7777777-|
E-|-77777777-55555555------------------|
B-|------------------------------------|

Chorus 1 x1

Bridge- x3
G-|------------------------------------|
D-|------------------------------------|
A-|-------------------55555555---------|
E-|-77777777-55555555----------5555555-|
B-|------------------------------------|

Bridge 2-
G-|------------------------------------|
D-|------------------------------------|
A-|-------------------55555555-7777777-|
E-|-77777777-55555555------------------|
B-|------------------------------------|

Chorus 2 x1

Outro- x12
G-|-----------------------|
D-|-----------------------|
A-|-----------------------|
E-|-/7\-----x-5-7---------|
B-|-----3-5-------x-3-5-0-|

Final Riff- x8
G-|-----------------|
D-|-----------------|
A-|-----------------|
E-|-----------------|
B-|-3-0-3-0-3-0-3-0-|

8-I Am The Highway

Intro:
play nothing

1st Verse
G|------------------------------------------------|
D|------------------------------------------------|
A|------------------------------------------------|
E|--5---55-5--05---55-5--05---55-5--05---55-5--0--|

                                                    1st  2nd
G|------------------------------------------------|-----|----|
D|o----------------------------------------------o|-----|----|
A|o------------3---33-3--3-----------------------o|-----|-23-|
E|--1---11-1--3--------------3---33-3--05---55-5--|--3--|----|

                                                    1st  2nd
G|------------------------------------------------|-----|----|
D|o----------------------------------------------o|-----|----|
A|o------------3-----------------------3---------o|-----|----|
E|--1---11-1--3--5---55-5-5-3---33-3--3--5---55-5-|--5--|----|

1st Chorus                             1st         2nd
G|--------------------------------|-----------|-----------|
D|o------------------------------o|-----------|-----------|
A|o-3---33-3------------5---55-5-o|----------2|5--/7--/7--|
E|-----------3---33-3-5-----------|-5---55-5--|-----------|

2nd Verse
G|------------------------------------------------|
D|------------------------------------------------|
A|------------------------------------------------|
E|--5---55-5--05---55-5--05---55-5--05---55-5--0--|

                                                   1st   2nd
G|------------------------------------------------|----|-----|
D|o----------------------------------------------o|----|-----|
A|o------------3---33-3--3-----------------------o|-23-|-----|
E|--1---11-1--3--------------3---33-3--05---55-5--|----|--3--|

                                                    1st  2nd
G|------------------------------------------------|-----|---|
D|o----------------------------------------------o|-----|---|
A|o------------3-----------------------3---------o|-----|---|
E|--1---11-1--3--5---55-5-5-3---33-3--3--5---55-5-|--5--|---|

2nd Chorus                             1st       2nd,3rd          4th
G|--------------------------------|-----------|-----------|--------------------|
D|o------------------------------o|-----------|-----------|--------------------|
A|o-3---33-3------------5---55-5-o|-----------|----------2|--/7--/7--/77777777-|
E|-----------3---33-3-5-----------|-5---55-5-3|-5---55-5--|--------------------|

Interlude
G|--------------------------------------------------------------------|
D|---------------------------------------------------------------7775-|
A|---------33333333-------------------------33333335------------------|
E|-11111111--------3333333357500000-11111113--------33333333-5555-----|

G|--------------------------------------------------------------------|
D|--------------------------------------------------------------------|
A|---------33333333----------------23--------33333333-----------------|
E|-11111113--------3333333355555555--11111111--------3333333355555555-|

3nd Chorus                             1st       2nd,3rd       4th
G|--------------------------------|-----------|-----------|-------------|
D|o------------------------------o|-----------|-----------|-------------|
A|o-3---33-3------------5---55-5-o|-----------|----------2|--/77777777--|
E|-----------3---33-3-5-----------|-5---55-5-3|-5---55-5--|-------------|
    4th cont
G|------------------------------------|
D|------------------------------------|
A|--/77777777--/77777777--/77777777\--|
E|------------------------------------|

Ending                                             2nd
G|------------------------------------------------|---|
D|o----------------------------------------------o|---|
A|o----------------------------------------------o|---|
E|--5---55-5--05---55-5--05---55-5--05---55-5--0--|-5-|

9-Exploder

Intro (just guitar playing)

Verse1:

G|-------------------------|
D|-4----------4------------|
A|-------------------------|
E|---2-0-2--0---2-0-2--0---| 8x

Chorus1:

G|-------------------------|
D|-4----------4------------|
A|-------------------------|
E|---2-0-2--0---2-0-2--0---|

G|-----------------------------|
D|-4----------4----------------|
A|-----------------------------|
E|---2-0-2--0---2-0-2--0--2^---| 4X

Verse2:

G|-------------------------|
D|-4----------4------------|
A|-------------------------|
E|---2-0-2--0---2-0-2--0---| 12x

Chorus2:

G|-------------------------|
D|-4----------4------------|
A|-------------------------|
E|---2-0-2--0---2-0-2--0---|

G|-----------------------------|
D|-4----------4----------------|
A|-----------------------------|
E|---2-0-2--0---2-0-2--0--2^---| 4X

Guitar Solo:

G|----------------------------|
D|-4------------4-------------|
A|----------------------------|
E|---2-0-2--0---2-0-2--0-0~---|

G|----------------------------|
D|-4----------4---------------|
A|----------------------------|
E|---2-0-2--0---2-0-2--0-3~---| 4x

Verse3: (not exact number of times, just listen, you will get it)

G|--------------------|
D|-4444444444444444---|
A|--------------------|
E|--------------------|

G|--------------------|
D|-2222222222222222---|
A|--------------------|
E|--------------------| x2

Chorus3:

G|-------------------------|
D|-4----------4------------|
A|-------------------------|
E|---2-0-2--0---2-0-2--0---|

G|-----------------------------|
D|-4----------4----------------|
A|-----------------------------|
E|---2-0-2--0---2-0-2--0--2^---| 4X

Outro: (after Chris Cornell chants da un du da dum 4x)
G|--------------------|
D|--------------------|
A|--------------------|
E|-2--2--2--2--2--2---|

10-Hypnotizer

The majority of the song is the first riff, the timing changes
slightly from the intro to the verse. I'm not sure if the bridge and
the end are done on bass or if Tom kicks it down an octave with his
whammy, but either way, the notes are right. Easy song, just listen
for timing, and follow the guitar in the last chorus.

 Main Riff:
D|-----------------------|
A|------5---5------------|
E|--/7----7----7\--------|
B|-----------------0~~---|

 Bridge:
D|------------------------------------------------------------------|
A|------------------------------------------------------------------|
E|-7-7-7-7-7-7-7-7-7-7-7-7-7-7-7-7--5-5-5-5-5-5-5-5-5-5-5-5-5-5-5-5-|
B|------------------------------------------------------------------|

 Last Chorus:
D|----------------------------------------------|
A|------5---5------5---5------5---5-------------|
E|--/7----7-----7----7-----7----7---7\----------|
B|--------------------------------------0~~-----|

 End:
D|-----------------------------------------------------|
A|-----------------------------------------------------|
E|-7-7-7-7-7-7-7-7-7-7-7-7-x-x-x-x-x-x-x-x-x-x-(fade)--|
B|-----------------------------------------------------|

11-Bring Em Back Alive

Tuning: B-E-A-D

Intro:
D|----------------------------|
A|----------------------------|
E|-----7---4/5----1---0-------|
B|--0----0-----0----0----0-3--| (x4)

 Rest

D|------------------------------------------------------------------/14-14-14-14--|
A|--------------------------------------------------------------------------------|
E|--0-0-0-0-0-0-0-0-0-0-0-0-0-0-0-0-0-0-0-0-0-0-0-0-0-0-0-0-0-0-0-0---------------|
B|--------------------------------------------------------------------------------|

D|--------------------------------------------------------|
A|--------------------------------------------------------|
E|-----7---4/5--------------------5---4/5-----------------|
B|--0----0-----0--6-0-5--0-3---3----0-----3-5-6-0-5--3-5--| (x4)


Verse 1:
D|---------------------------|
A|---------------------------|
E|---------6------5-------3--|
B|--5-3--x---5--x---5--x-x---| (x12)


Chorus:
D|--------------------------------------------------------|
A|--------------------------------------------------------|
E|-----7---4/5--------------------5---4/5-----------------|
B|--0----0-----0--6-0-5--0-3---3----0-----3-5-6-0-5--3-5--| (x4)


Verse 1:
D|---------------------------|
A|---------------------------|
E|---------6------5-------3--|
B|--5-3--x---5--x---5--x-x---| (x10)


Chorus:
D|--------------------------------------------------------|
A|--------------------------------------------------------|
E|-----7---4/5--------------------5---4/5-----------------|
B|--0----0-----0--6-0-5--0-3---3----0-----3-5-6-0-5--3-5--| (x3)

D|--------------------------------------------------------|
A|--------------------------------------------------------|
E|-----7---4/5--------------------------------------------|
B|--0----0-----0--6-0-5--0-3---3-5-6-0-5--3-5-6-0-5--3-5--|


Guitar Solo:
D|---------------------------------------------------------------|
A|---------------------------------------------------------------|
E|--0-0-0-0-0-0-0-0-0-0-0-0-0-0-0-0-0-0-0-0-0-0-0-0-0-0-0-0-0-0--|
B|---------------------------------------------------------------|

D|------------------------------------------19-19-19-------------|
A|---------------------------------------------------18h19-18h19-|
E|--0-0-0-0-0-0-0-0-0-0-0-0-0-0-0-0-0-0-0-0----------------------|
B|---------------------------------------------------------------|

D|---------------------------------------------------------------|
A|---------------------------------------------------------------|
E|--0-0-0-0-0-0-0-0-0-0-0-0-0-0-0-0-0-0-0-0-0-0-0-0-0-0-0-0-0-0--|
B|---------------------------------------------------------------|

D|------------------------------------------19-19-19-19-19-19--|
A|-------------------------------------------------------------|
E|--0-0-0-0-0-0-0-0-0-0-0-0-0-0-0-0-0-0-0-0--------------------|
B|-------------------------------------------------------------|

D|--------------------------------------------------------|
A|--------------------------------------------------------|
E|--7-5-7----7-5-7----7-5-7----7-5-7----7-5-7----7-5-7----|
B|--------6--------5--------3--------6--------5--------3--| (x2)

D|--------------------------------------------------------|
A|------5--------5--------5--------5--------5--------5----|
E|--7-5------7-5------7-5------7-5------7-5------7-5------|
B|--------6--------5--------3--------6--------5--------3--| (x2)

 Rest

D|-------------------------------|
A|-------------------------------|
E|--0-0-----0-0-----0-0-----0-0--|
B|-------------------------------|

D|------------------------------------------------------------------/14-14-14-14--|
A|--------------------------------------------------------------------------------|
E|--0-0-0-0-0-0-0-0-0-0-0-0-0-0-0-0-0-0-0-0-0-0-0-0-0-0-0-0-0-0-0-0---------------|
B|--------------------------------------------------------------------------------|


Chorus/Outro:
D|--------------------------------------------------------|
A|--------------------------------------------------------|
E|-----7---4/5--------------------5---4/5-----------------|
B|--0----0-----0--6-0-5--0-3---3----0-----3-5-6-0-5--3-5--| (x3)

D|------------------------------------------------------------------|
A|------------------------------------------------------------------|
E|-----7---4/5------------------------------------------------------|
B|--0----0-----0--6-0-5--0-3---3-5-6-0-5--3-5-6-0-5--3-5--3-5--3-5--|


12-Light My Way

Tuning low to high ? D,A,D,G

(No bass ?til 0:21)
INTRO/CHORUS
G-----------------------------------|
D----------0------------------------|
A--------3---3--------------3-------|
D-0-0--00-------0-0-00-3-5----------|

VERSE
G-----------------------------------|
D----------0-3----------------------|
A-----------------------------------|
D-00-3-0--------00-3-0-3-2----------|
Part of the verse gets cut off right before the chorus, just listen to get it right

BRIDGE		    HEAVIER PART OF BRIDGE
G-----------------            ----------------------|
D----0----0-------            -----0---0-----0---0--|
A--3----3---------            ---3---3-----3---3----|
D-----------------            ----------0-----------|

That should do it.  Play along with the CD to perfect the amount of times you play each, 
you?ll get it


13-Getaway Car

Key: D minor
Tuning: Standard 5 string

Verse
G-------------------------------------------||
D------------------------------------------*||
A-------------------------------------------||
E--3---5-6----------------------3--5-------*||
B----------5-6--5-5-5--3-3--5-6------5-5-6--||

Chorus
G--------------------|---|-9-|
D------------5---7~-*|-7-|---|
A--3~---5~-----------|-0-|---|
E-------------------*|---|---|
B--------------------|---|---|
		       ^Pick one or play both w/e sounds best
Bridge		     3x
G----------------------|------|
D--------------5---7--*|------|
A--3~-----5~-----------|------|
E-----3-5----5--------*|--09\-| Play sround within the scale i dont know
B----------------------|------| the whole bridge i just improve it
			  ^ the 0 is like a grace note


14-The Last Remaining Light

*notes* The F at the beginging of the verse is sometimes left out,
listen for changes...

 Intro/Bridge:
G|-7--------6--------5--------4-----------------------------|
D|---7-5-7----7-5-3----5-3-5----5-3-------------------------|
A|----------------------------------------------3--------5~-|
E|----------------------------------5--6-3-1-3----3-1-3-----|
B|----------------------------------------------------------|

 Verse:
G|-----------------------------------------------------------|
D|-----------------------------------------------------------|
A|----/5-------------/3-----------/5------/7--------/3-------|
E|-1-----3-5--0-3-5-----3-1--3-1-----3-5-----3-5-------1--3--|
B|-----------------------------------------------------------|

 Verse End: 1&2
G|-----|--------|
D|-----|--------|
A|-----|--------|
E|--1--|--------|
B|-----|--3~~~~~|

 Interlude:
G|---------------------------------------|
D|---------------------------------------|
A|-5----------4--------3-----------------|
E|----3-5--------3--------1---------1----|
B|-------------------------------0-------|

  Chorus:                End:                  x3 then:
G|---------------------||------------------------|----------|
D|---------------------||------------------------|----------|
A|---------------------||------------------------|----------|
E|-1~---0~--------3~---||-7~-----3-3-3-3-3-3-3-3-|----7~~~~-|
B|-----------0~--------||------------------------|----------|

Structure:
Intro	x1
Verse w/ end 1
Verse w/ end 2
Rest
Verse w/ end 1
Verse w/ end 2
Rest
Interlude x2
Verse w/ end 1
Verse
Chorus x3 end with E|-/7-|
Bridge w/ verse end 1
Bridge
Chorus x3
End

The end......

-provided by TheMutts
Suggest correction
What's this?
You can suggest a correction to this tab. Community and Mods will review your correction and vote to approve or reject it.
comments
print report bad tab
4 comments total. Showing first comments.
0 reply
le screamist 516 wrote on March 11 2006, 11:02 pm

man that is completely wrong QUIT BUTCHERING AUDIOSLAVE! go listen to koRn you scum.

0 reply
tacobell444 458 wrote on May 25 2007, 07:36 pm

a-men

0 reply
afromonkeyR0X 581 wrote on August 15 2008, 08:03 pm

A lot of these tabs are wrong, sorry to say. And the 4th song is called "WHAT YOU ARE" not "WHAT ARE YOU"

Smiley is not impressed =(

guest
You may want to rate the tab now too:
select rating
Please do not post tabs as comments. Select "correction" instead!