Oops, an error
Loading. Please wait.

Audioslave Tab

44,536 views 36 this week
12 commentsread comments
1 2 3 4 5
x 35
add to favorites
launch autoscroll
font size
0
reset
how to read this tab
guitar tuner
Autoscroll
slow
fast
+/-
esc
set tempo
stop
Help us to improve Ultimate-Guitar.com Take our survey!
×
Artist-Audioslave
Song name/ album name-Audioslave
Tabbed by: Bob freedoggy77@yahoo.com

I DID NOT Write these tabs I just used other peoples and used them on here
because its easiers when you have the whole album. I aonly picked the tabs
with the highest rating. I'd like to thank the original authors of the tabs.
ENJOY and give me a 5 star rating cause all these songs were given 5 stars.
(except hypnotize-4 stars) and light my way(no rating)


1. Cochise-

Verse:
e ----------------------------------
B ----------------------------------
G ----------------------------------
D ----------------------------------
A -5h7--5---5----------5h7--5------- Reapeat 4 times for intro
E --------7---7-3-0-----------7-3-0- then reapeat 7 times for Verse

Then...
e -------------------------------
B -------------------------------
G -------------------7---8-------
D -------------------7---8-------
A -5h7--5---5--------5---6-------
E --------7---7-3-0--5---6-------

Chorus:
e ---------------------------
B ---------------------------
G ---------------------------
D ---------------------------
A --5h7-5h7--------------5---
E ----------5-3-0--3-5-7-----

Solo:
Tremelo pick    *                          *       *
e --------------------------|--------------------------
B --------------------------|--------------------------
G --------------------------|--------------------------
D --7--9--9--9--9-----------|--7--9--9--9--9-------7/--
A --------------------------|--------------------------
E --------------------------|--------------------------
     *  *   *  *                     *                *  *  *  *
e ------------------|-----------------------------------------------
B ------------------|-----------------------------------------------
G --14b-14-14b-14---|--14b-rp-rp-rp-rp--14b-rp-rp-rp-14-14b-14-14b--
D ------------------|-----------------------------------------------
A ------------------|-----------------------------------------------
E ------------------|-----------------------------------------------

Break:
e ----------------------------|
B ----------------------------|
G ----------------------------|
D ----------------------------|  x4
A ---9---9--------------------|
E -----7---7------------------|

e --------------------------|
B --------------------------|
G --------------------------|
D --------------------------|  x3
A --14----14----------------|
E -----0-----0--------------|

e --------------------------|
B --------------------------|
G ---------------7----------|
D ---------------7----------|
A --7------------5----------|
E -----0----0---------------|

Breakdown Riff:
e -----------------------------------|
B -----------------------------------|
G --9----9---------------------------|
D --9----9---------------------------|  X4
A --7----7-------------------------5-|
E -----------5--3--0----3---5---7----|

End Chorus:
Repeat chorus then finish with:
e --------------------------|
B --9-----9\----------------|
G --9-----9\----------------|
D --9-----9\----------------|
A --7-----7\----------------|
E --------------------------|
 


2. Show me how to live-
tuning:D A D G B E
..by the way the tuning came strait from tom morello's mouth in guitar world

key:
~ = hold
* = rest
tp= tremlo pick 
b = bend
h = hammer on
p = pull off

intro : light dist
E------------
B------------
G-7----------
D-7--------2-
A-5--------2-
D----------2-

pre verse : heavy distortion
E---------------------------------------------------------------------*---
B---------------------------------------------------------------------*---
G---------------------------------------------------------------------*---
D-----0h2---------------------------------------------0h2-------------*---
A---------------------------------------------------------------------*---
D-0h2-----0--2--0--2--0--2---7b-8-7-5-7-5-2-2-5-2-0h2-----0-2-0-2-0-2-*---

verse : heavy distortion and palm muted
E---------------------------------------------------------------------*---
B---------------------------------------------------------------------*---
G---------------------------------------------------------------------*---
D-----0h2---------------------------------------------0h2-------------*---
A---------------------------------------------------------------------*---
D-0h2-----0--2--0--2--0--2---7b-8-7-5-7-5-2-2-5-2-0h2-----0-2-0-2-0-2-*---

prechorus
E------------
B------------
G------------
D-x-x--x-x-x-
A-x-x--x-x-x-
D-x-x--x-x-x-

chorus : heavy distortion
E------------------
B------------------
G------------------
D-2--5---------0-2-
A-2--5-------------
D-2--5-2p0-2p0-----

solo : dist with some effect 
just play from 2:30 to 2:50
E------
B------
G--9t--
D------
A------
D------

breakdown : 
E------------
B------------
G-7----------
D-7--------2-
A-5--------2-
D----------2-

outro 1 : 
play from 3:59 to 4:17
E--------------
B--------------
G--------------
D-2--2--2-2--2-
A-2--2--2-2--2-
D-2--2--2-2--2-

outro 2 : this is the part where chris's 
voice changes key a few times im not sure if 
tom's is playin during it or not but this matches 
up so even if hes not playin still sounds right

E---------------------------
B---------------------------
G-9-----7-----4--2--0-------
D----------------------0--2-
A---------------------------
D---------------------------


order:
intro 4x
preverse 2x
verse 4x
prechorus 1x
chorus 8x
verse 2x
prechorus 1x
chorus 8x
solo
breakdown 8x
chorus 8x
outro 1
outro 2 1x




3.Gasoline-
Tuning: Low E string down to a B.

Intro:
e|------------------------------------------------------------------------
B|------------------------------------------------------------------------
G|------------------------------------------------------------------------
D|------------------------------------------------------------------------
A|------------------------------------------------------------------------
B|---//12---0--0---3H5---0--10H12---12//---0--0---3H5---0--10H12---12//---

e|-----------------------------------------------------|
B|-----------------------------------------------------| 
G|-----------------------------------------------------|  
D|-----------------------------------------------------|   
A|---------------------------------------------------2-| 
B|---0--0---3H5---0--10H12---12//---5-5--3--5--3--0--0-|

Whole Band Comes In:
e|------------------------------------------------------------------
B|------------------------------------------------------------------
G|------------------------------------------------------------------
D|------------------------------------------------------------------
A|------------------------------------------------------------------
B|---12//---0--0---3H5---0--10H12---12//---3P0--0---3H5---0--10H12--

e|----------------------------------------------------------|
B|----------------------------------------------------------|
G|----------------------------------------------------------|
D|----------------------------------------------------------|
A|--------------------------------------------------------2-|
B|12//---3P0--0---3H5---0--10H12--12//---5-5--3--5--3--0--0-|

Verse 1: With tremelo
                                      
e|--2----2------------2----2----------\
B|--4----4----5---4---4----4----5---4- \
G|--4----4------------4----4----------  \
D|--4----4------------4----4----------  / Twice, then...
A|--2----2------------2----2---------- /
B|------------------------------------/

e|--0----0------------2----2----------|
B|--2----2----5---4---4----4----5---4-| 
G|--2----2------------4----4----------|  
D|--2----2------------4----4----------|  
A|--0----0------------2----2----------| 
B|------------------------------------|


Chorus:

e|------------------------------------------------------------------
B|------------------------------------------------------------------
G|------------------------------------------------------------------
D|------------------------------------------------------------------
A|------------------------------------------------------------------
B|---12//---0--0---3H5---0--10H12---12//---3P0--0---3H5---0--10H12--


e|----------------------------------------------------------------
B|----------------------------------------------------------------
G|----------------------------------------------------------------
D|----------------------------------------------------------------
A|----------------------------------------------------------------
B|12//---3P0--0---3H5---0--10H12--12//---3P0--0---3H5---0--10H12--


e|-------------------------------------------------------------------------
B|-------------------------------------------------------------------------
G|-------------------------------------------------------------------------
D|-------------------------------------------------------------------------
A|-----------------------5--2--------0H2------------------5--2--------0H2--
B|12//---0--0---3H5---0--------5--3-------0--0---3H5---0--------5--3-------


e|----------------------------------------------------------------|
B|----------------------------------------------------------------|
G|----------------------------------------------------------------|
D|----------------------------------------------------------------|
A|-------------------5--2--------0H2------------------------------|
B|---0--0---3H5---0--------5--3--------12---10---7---5---3--3--0--|

Verse 2:With Tremelo

e|--2----2------------2----2----------\
B|--4----4----5---4---4----4----5---4- \
G|--4----4------------4----4----------  \
D|--4----4------------4----4----------  / Twice, then...
A|--2----2------------2----2---------- /
B|------------------------------------/

e|--0----0------------2----2----------|
B|--2----2----5---4---4----4----5---4-| 
G|--2----2------------4----4----------|  
D|--2----2------------4----4----------|  
A|--0----0------------2----2----------| 
B|------------------------------------|

Chorus #2:

e|------------------------------------------------------------------
B|------------------------------------------------------------------
G|------------------------------------------------------------------
D|------------------------------------------------------------------
A|------------------------------------------------------------------
B|---12//---0--0---3H5---0--10H12---12//---3P0--0---3H5---0--10H12--


e|----------------------------------------------------------------
B|----------------------------------------------------------------
G|----------------------------------------------------------------
D|----------------------------------------------------------------
A|----------------------------------------------------------------
B|12//---3P0--0---3H5---0--10H12--12//---3P0--0---3H5---0--10H12--


e|-------------------------------------------------------------------------
B|-------------------------------------------------------------------------
G|-------------------------------------------------------------------------
D|-------------------------------------------------------------------------
A|-----------------------5--2--------0H2------------------5--2--------0H2--
B|12//---0--0---3H5---0--------5--3-------0--0---3H5---0--------5--3-------


e|----------------------------------------------------------------|
B|----------------------------------------------------------------|
G|----------------------------------------------------------------|
D|----------------------------------------------------------------|
A|-------------------5--2--------0H2------------------------------|
B|---0--0---3H5---0--------5--3--------12---10---7---5---3--3--0--|


Solo:

e|---------------------------------------------------------\
B|---0---0--3H5---0--10H12--12--0---0--3H5---0--10H12--12-- \
G|---------------------------------------------------------  \Three times
D|---------------------------------------------------------  /
A|--------------------------------------------------------- /
B|---------------------------------------------------------/

e|---------------------------------------------------------
B|---0---0--3H5---0--10H12--12--0--10H12--12--0--10H12-----
G|---------------------------------------------------------
D|---------------------------------------------------------
A|---------------------------------------------------------
B|---------------------------------------------------------

Add Wah Effects
e|------------------------------------------------\
B|------------------------------------------------ \             \
G|------------------------------------------------  \Times Three  \
D|--------------------12------------------12------  /              \
A|---14P12--14P12--14-----14---14P12--14-----14P12 /                \This Whole 
B|------------------------------------------------/                 /Thing 2X
                                                                   / 
e|-------------------------------------------------------------|  /
B|-------------------------------------------------------------|
G|-------------------------------------------------------------|
D|--14B16--14--12--14B16--14--12--14B16--14--12--14B16--14--12-|
A|-------------------------------------------------------------|
B|-------------------------------------------------------------|

Repeats this while Chris sings:

e|-------------------------------------------------------------|  
B|-------------------------------------------------------------|
G|-------------------------------------------------------------|
D|--14B16--14--12--14B16--14--12--14B16--14--12--14B16--14--12-|
A|-------------------------------------------------------------|
B|-------------------------------------------------------------|

Back to the Chorus:

e|------------------------------------------------------------------
B|------------------------------------------------------------------
G|------------------------------------------------------------------
D|------------------------------------------------------------------
A|------------------------------------------------------------------
B|---12//---0--0---3H5---0--10H12---12//---3P0--0---3H5---0--10H12--


e|----------------------------------------------------------------
B|----------------------------------------------------------------
G|----------------------------------------------------------------
D|----------------------------------------------------------------
A|----------------------------------------------------------------
B|12//---3P0--0---3H5---0--10H12--12//---3P0--0---3H5---0--10H12--


e|-------------------------------------------------------------------------
B|-------------------------------------------------------------------------
G|-------------------------------------------------------------------------
D|-------------------------------------------------------------------------
A|-----------------------5--2--------0H2------------------5--2--------0H2--
B|12//---0--0---3H5---0--------5--3-------0--0---3H5---0--------5--3-------


e|----------------------------------------------------------------|
B|----------------------------------------------------------------|
G|----------------------------------------------------------------|
D|----------------------------------------------------------------|
A|-------------------5--2--------0H2------------------------------|
B|---0--0---3H5---0--------5--3--------12---10---7---5---3--3--0--|


e|------------------------------------------------------
B|------------------------------------------------------
G|------------------------------------------------------
D|------------------------------------------------------
A|------------------------------------------------------
B|---0--0---3H5---0--10H12---12---10---7---5---3--3--0--

e|------------------------------------------------------|
B|------------------------------------------------------|
G|------------------------------------------------------|
D|------------------------------------------------------|
A|------------------------------------------------------|
B|---0--0---3H5---0--10H12---12---10---7---5---3--3--0--|

Fades Out...






4. What you are-

Ok,this song is in Drop B. This is the only song I have ever seen in Drop B,
so get your tuner out for a second and try this song out, it is really great.

Intro:
e|-------------------------------------------------------------------|
B|-------------------------------------------------------------------|
G|-------------------------------------------------------------------|
D|---4---4---4------2---2---2----0---0---0----2---2---2--------------|
A|-2---2---2------2---2---2----2---2---2----4---4---4----0-----------|
B|-------------------------------------------------------------------|
  (when you wanted me I came to you)

Chorus:
e|-----------------------------------------|
B|-----------------------------------------|
G|-----------------------------------------|
D|4-4-4-4---------------7-6-4-4-4----------|
A|2-2-2-2----9-9-9-9----7-7-5-5-5----------|
B|0-0-0-0----7-7-7-7----5-5-3-3-3----------|
  Now I'm free...


End chorus on:
e|---------------------------------------------------------------------------|
B|---------------------------------------------------------------------------|
G|---------------------------------------------------------------------------|
D|---------------------------------------------------------------------------|
A|---7-7-8-7--6-5-2----------------------------------------------------------|
B|---9-9-6-5--4-3-0----------------------------------------------------------|


Thats the heart of the song and the only parts I can tab. Sorry.










5. Like a stone-
Intro / Verse: (with vibrato, chorus)  
e |---------------|---------------|---------------|---------------|
B |---------------|---------------|---------------|---------4--3--|
G |--3------------|--5------------|-------2-------|---------------|
D |-------5-------|-------3-------|--0------------|--1------------|
A |---------------|---------------|---------------|---------------|
E |---------------|---------------|---------------|---------------|



Chorus: (distortion)
e |----------|----------|-------------|-----------| x2
B |----------|----------|-------------|-----------|
G |----------|--3-------|-------------|-----------|
D |--5-------|--3-------|--3----------|--5--------|
A |--5-------|--1-------|--3----------|--5--------|
E |--3-------|----------|--1----------|--3--------|

e |----------|----------|-------------|-----------|
B |----------|----------|-------------|-----------|
G |--8-------|----------|-------------|-----------|
D |--8-------|--5-------|--3----------|--5--------|
A |--6-------|--5-------|--3----------|--5--------|
E |--6-------|--3-------|--1----------|--3--------|

e |----------|----------|-------------|
B |----------|----------|-------------|
G |--8-------|----------|--7------7---|
D |--8-------|--5-------|--7------7---|
A |--6-------|--5-------|--5------5---|
E |--6-------|--3-------|--5----------|

Guitar Solo: 
(Insane effects, bend into notes with whammy bar) 
e |--15---------17-|--18----------|--20-------18--17-|--15--------|
B |----------------|--------------|------------------|------------|
G |----------------|--------------|------------------|------------|
D |----------------|--------------|------------------|------------|
A |----------------|--------------|------------------|------------|
E |----------------|--------------|------------------|------------|

e |--15---------17-|---------------|--18--20--22--22----|
B |----------------|--18-----------|--------------------|
G |----------------|---------------|--------------------|
D |----------------|---------------|--------------------|
A |----------------|---------------|--------------------|
E |----------------|---------------|--------------------|

(With whammy pedal boosted to 1 octave, wah-wah)
e |----------------| x 4
B |----------------|
G |-15--14---------|
D |---------15--12-|
A |----------------|
E |----------------|

e |----------------|----------------|----------------|----------|
B |----------------|----------------|----------------|----------|
G |----------------|---------10--12-|-14--15--14--15-|-14-------|
D |-------------10-|-12--13---------|----------------|----------|
A |-10--12--13-----|----------------|----------------|----------|
E |----------------|----------------|----------------|----------|

Interlude: (clean tone)
    D#         A#        D          D#
e |----------|-6---6-6--|----------|----------|
B |-8---8-8--|-6---6-6--|-7---7-7--|-8---8-8--|
G |-8---8-8--|-7---7-7--|-7---7-7--|-8---8-8--|
D |-8---8-8--|-8---8-8--|-7---7-7--|-8---8-8--|
A |-6---6-6--|-8---8-8--|-5---5-5--|-6---6-6--|
E |----------|-6---6-6--|----------|----------|

    D#min     C          D           Gmin
e |----------|----------|----------|-3---3-3--| 
B |-7---7-7--|-5---5-5--|-7---7-7--|-3---3-3--|
G |-8---8-8--|-5---5-5--|-7---7-7--|-3---3-3--|
D |-8---8-8--|-5---5-5--|-7---7-7--|-5---5-5--|
A |-6---6-6--|-3---3-3--|-5---5-5--|-5---5-5--|
E |----------|----------|----------|-3---3-3--|

Final Chorus: (distortion)
e |----------|----------|-------------|-----------| x2
B |----------|----------|-------------|-----------|
G |----------|--3-------|-------------|-----------|
D |--5-------|--3-------|--3----------|--5--------|
A |--5-------|--1-------|--3----------|--5--------|
E |--3-------|----------|--1----------|--3--------|

e |----------|----------|-------------|-----------|
B |----------|----------|-------------|-----------|
G |--8-------|----------|-------------|-----------|
D |--8-------|--5-------|--3----------|--5--------|
A |--6-------|--5-------|--3----------|--5--------|
E |--6-------|--3-------|--1----------|--3--------|

e |----------|----------|-----|-----|-----|-----------|
B |----------|----------|-----|-----|-----|-----------|
G |--8-------|----------|--7--|--7--|--7--|--8--------|
D |--8-------|--5-------|--7--|--7--|--7--|--8--------|
A |--6-------|--5-------|--5--|--5--|--5--|--6--------|
E |--6-------|--3-------|--5--|--5--|--5--|--6--------|
*The End*








6. Set it off-
Set It Off-Intro/Bridge/Outro/Main Riff

E|---------------|-----------------------------------------------------
B|---------------|-----------------------------------------------------
G|---------------|-----------------------------------------------------
D|---------------|---------7------------------7------------------------
A|---------------|-----/9-----------------/9---------------------9----7
E|-------0--2--0-|--2---------0--2--0--2---------0--2--0----2----------

--------------|-----------------------------------------------------|
--------------|-----------------------------------------------------|
--------------|-----------------------------------------------------|
--------------|-----------------------------------------------------|
--------------|------9---7--------------9---7-----------------------|
------0--2--0-|--2-----------5------2-----------0--2--0-------------|

Verse Riff

|-----------------------------------------------------------
|-----------------------------------------------------------
|-----------------------------------------------------------
|-----------------------------------------------------------
|-----------------------------------------------------------
|-----2-0-2-X-X-2-2-2-2-0-5-2-0--2-0-2-X-X-2-2-2-2-0-5-2-0--

----------------------------------------------|
----------------------------------------------|
----------------------------------------------|
----------------------------------------------|Reapeat
----------------------------------------------|
2-0-2-X-X-2-2-2-2-0-5-2-0--2-0-2-X-X-2-0/12--5|

Chorus Riff

|--------------------------------------------------------------------------
|--------------------------------------------------------------------------
|--------------------------------------------------------------------------
|-------7----------------|-------7----------------|-------7----------------
|----/9-----9-7-----7-9--|----/9-----9-7-----7-9--|----/9-----9-7-----7-9--
|--2-------------9-------|--2-------------9-------|--2-------------9-------

|-------------|------------------------------------------------------------
|-------------|------------------------------------------------------------
|-------------|------------------------------------------------------------
|-------------|------------------------------------------------------------
|-----9--7----|-----9--7---------------------------------------------------
|--2---------5|--2-------0-2-0---------------------------------------------

Middle Section
        3 Bar Rest      x4
|------------------|----------|-----------|--------------------------------
|------------------|--17------|-----------|--------------------------------
|------------------|--18------|--4--------|--4-----x-6---2-----------------
|------------------|--16------|--5--------|--5-----x-7---4-----------------
|------------------|----------|--5--------|--5-----x-7---4-----------------
|--2---------------|----------|--3--------|--3-----x-5---2-----------------

|--------------------------------------------------------------------------
|---------------------------------0----------------------------------------
|--2------------------------------1----------------------------------------
|--4-----------2-2-2-2-2-2-2-2----2----------------------------------------
|--4-----------2-2-2-2-2-2-2-2----2----------------------------------------
|--2-----------0-0-0-0-0-0-0-0----0--------------------------------12\-----







7. Shadow on the Sun-
^:Whole note     |: eighth note   | : sixteenth note  |: thirtysecond note 
*:Half Note      -                =                   =
|:Quarter note                                        -

*(): harmonic
!:   False harmonic                                      
/:   Slide


  (B)  (D)                    (A) (C#)
e------------------------------------------------------
b------------------------------------------------------
g---7--7--7--7--7--7--7--7-----6--6--6--6--6--6--6--6--
d--9--9--9--9--9--9--9--9-----7--7--7--7--7--7--7--7---
a------------------------------------------------------
E------------------------------------------------------
  || ||  || || || || || ||    || || || || || || || ||  (16th notes)
  =====  ===== ===== =====    ===== ===== ===== ===== 


(play this clean until the chorus which is like 10 times) [16th notes]
   

    (Play this bit 3 times)   (the fourth time, play this)
  E5  D5    B5  (B)(F#)(D)   
e--------------*(7)---------|--------------------
b-----------------*(7)------|--------------------
g----------------------*(7)-|--------------------
d-14--12----9---------------|-14--12--9--9---9---
a-14--12----9---------------|-14--12--9--9---9---
E-12--10----7---------------|-12--10--7--10--7---
                            |
   |   |    |    |  |    |  |  |   |  |   |  |  
                 -  ======            =====

(Play this whole thing twice with distortion, Heavy overdive, spike mid Fq)


The solo (sounds perfect, don't argue) [pre-pre-solo]

e--------12-----10-14-17-22--
b-12--10----10--12-12-15-22--
g----------------------------
d----------------------------
a----------------------------
E----------------------------

  ^   ^  ^  ^   ^  ^  ^   ^
                                            [pre-solo]
e-------19-19---19-19--19-19--19-19--19-19--19-
b-------19-19---19-19--19-19--19-19--19-19--19-
g-16-16------16------16------16----16-----16---
d----------------------------------------------
a----------------------------------------------
E----------------------------------------------

  |  |  |  | |  |  |  | |  | | |  | | | |  | |
  ============================================   (32nd notes)
  --------------------------------------------   
                                                   [cool solo]

e-16/17/16-14-16-17-17----16/17/16-14-17-17------------------------------
b-12-12-12-12-12-12-12----12-12-12-12-12-12------------------------------
g-----------------------------------------------16h1716-16--16h17h16-16--
d-----------------------------------------------16------16--16-------16--
a------------------------------------------------------------------------
E------------------------------------------------------------------------

  |  |  |  |  |   |  |     |  |  |  |  |  |     |  | |  |   |  |  |  |
  =======  -  =====        =======  -  =        ======  -   =======  - 


There you go, the solo, sounds perfect. Use wah and delay.


Outro

e---------------------|-------
b---------------------|-------
g---------------------|-------
d----------9-7-9------|-------
a--------------------7|--------
E-14/7--10-------7-10-|-14/7---

   |    |  | | | | | |   |
   -    -  ===   ---------

Use distortion.

There you go, this song is In Bm, the time sig is 3/4 and the tempo 65-69 quarter
notes per minute








8. I am the Highway-
Intro-
Its very easy

Standard tuning

Am is the chord

e-------0-0-0--------0-0-0----------
B-------1-1-1--------1-1-1----------
G-------2-2-2--------2-2-2----------
D-------2-2-2--------2-2-2----------
A--0----0-0-0----0---0-0-0----------
E-----------------------------------

It the goes into F when Chris Cornell begins to sing.

Solo-
e|-------------------------------------------------------------------------
B|-----------------------------------------------------------------------------
G|-------------------------12-12-12-12-12-9---------------------------------
D|10-10-10-10-10-10-10-10-------------------12-------10-10-10-10-10----10-9-10-
A|---------------------------------------------12-------------------12------
E|-------------------------------------------------------------------------


e|--------------------------------------------------------------------------
B|--------------------------------------------------------------------------
G|-----------------------------------9-10-10-9-9----------------------------
D|10-10----9-9-10-10-10-10-10-10-12---------------10-10------10-10-10-10-10-
A|-------------------------------------------------------12-----------------
E|--------------------------------------------------------------------------


e|---------------10-10---------10----------------------------------------------
B|--------10-10---------10-10--------10-10-13-10-10----------------------------
G|--------------------------------12----------------12-12-9-12-12-9------------
D|---10-------------------------------------------------------------12-10------
A|12---------------------------------------------------------------------12-12-
E|-----------------------------------------------------------------------------


e|--------------------------------------------------------------------------
B|10-10-13-10-10---------------10-10-10/12-12-15-15-13-13-12-12-------------
G|---------------12-12-9-12-12-----------------------------------14-14------
D|--------------------------------------------------------------------------
A|--------------------------------------------------------------------------
E|--------------------------------------------------------------------------


e|-12-12--------------------------------------------------------------------
B|-------15-15-13-13-12-12-------------------12-12--------------------------
G|-------------------------12-12-------12-12-------14-14-14-14-14-14-14-----
D|-------------------------------14-14--------------------------------------
A|--------------------------------------------------------------------------
E|--------------------------------------------------------------------------






9. Exploder-
TUNING ( E A D G B E )


INTRO
|-----------------------|
|---7-7-7-7-7-7-7...7---|
|-----------------------|
|-----------------------|
|-----------------------|
|-----------------------| 

VERSE

|---------------------------------------|
|---7-7-7-7-7-7...7---5-5-5-5-5-5...5---|
|---------------------------------------|
|---------------------------------------|
|---------------------------------------|
|---------------------------------------| x2

CHORUS

|----------------------------------------------|
|----------------------------------------------|
|---------------------------------------X--X---|
|---4---------------4---------------4---X--X---|
|---------------------------------------X--X---|
|------2--0--2--0------2--0--2--0-------X--X---|

|-----------------------------------------|
|-----------------------------------------|
|-----------------------------------------|
|---4---------------4---------------------|
|-----------------------------------------|
|------2----0--2--0------2--0--2--0---3---| x4

SOLO (WHAMMY)

|-------------------------------------------------------------------|
|---0-7-0-7-0-7-0-7-0-7-0-7-0-7---0-5-0-5-0-5-0-5-0-5-0-5-0-5-0-5---|
|-------------------------------------------------------------------|
|-------------------------------------------------------------------|
|-------------------------------------------------------------------|
|-------------------------------------------------------------------|

|-----------------------------------------------|
|---0-7-0-10---0-7-0-12---0-7-0-14---0-7-0-15---|
|-----------------------------------------------|
|-----------------------------------------------|
|-----------------------------------------------|
|-----------------------------------------------|

|-------------0------0-----------------------|
|---0-5-0-10-----10-----9---5--3--2--0-------|
|---------------------------------------2~---|
|--------------------------------------------|
|--------------------------------------------|
|--------------------------------------------|

END (WHAMMY)

|----------------------------|
|---7---7---7---7---7---7~---|
|---4---4---4---4---4---4~---|
|----------------------------|
|----------------------------|
|----------------------------|






10. Hypnotize-
Standard tuning-
key:
slow bend up = bu

intro and verse
E-0-----0-----------------------------------------------------
B-0-----0-----------------------------------------------------
G-2bu---4-----------------------------------------------------
D-------------------------------------------------------------
A-------------------------------------------------------------
E-------------------------------------------------------------

chorus 1
E-------------------------------------------------------------
B-10-10-10-10-10-10-10--8-8-8-8-8-8-8-------------------------
G--7--7--7--7--7--7--7--5-5-5-5-5-5-5-------------------------
D--9--9--9--9--9--9--9--7-7-7-7-7-7-7-------------------------
A-------------------------------------------------------------
E-------------------------------------------------------------

chorus 2 and 3
E---------
B---------
G-2-----4-
D-2-----4-
A-0-----2-
E---------





11. Bring em back alive-
Dropped B Tuning (Low to High): B A D G B E


 h   = hammer on
 p   = pull off
(H)  = harmonic
 \   = slide
 x   = strike muted strings
/\/  = sustain
P.M. = Palm Mute


Intro Guitar:

-|-------------------------------|-------------------------------|-
-|---13\12---12---12---12---12---|12-12p10---10---10---10---10---|-
-|--------9----9----9----9----9--|--------9----9----9----9----9--|-
-|-------------------------------|-------------------------------|-
-|-------------------------------|-------------------------------|-
-|-------------------------------|-------------------------------|-


-|-------------------------------|-------------------------------|-
-|10-10p8----8----8----8----8----|8-8\7------7----7----7----7----|-
-|-------9----9----9----9----9---|--------9----9----9----9----9--|-
-|-------------------------------|-------------------------------|-
-|-------------------------------|-------------------------------|-
-|-------------------------------|-------------------------------|-

{------------------------   play 2 times   ----------------------}



Intro Bass:
(tune top Bass string down to B)

               /\/\        /\/\/\
-|-------------------------------||------------
-|-------------------------------||------------
-|-------------------------------||------------
-|-0-12-0-9h10-0---6-0-5-0-3-----||------------
                                 X4 (play 4 times, then rest for 4 measures)




Pre-Chorus:

-|------0---0---0---0----0--||------------------------------------------------
-|--7\5---5---5---5---5-----||------------------------------------------------
-|--------------------------||------------------------------------------------
-|--------------------------||------------------------------------------------
-|--------------------------||------------------------------------------------
-|--------------------------||------------------------------------------------
   "Oh - ooo - oh -oh - oh" x4

Chorus #1:
                /\/\         /\/\                 /\/\         /\/\
-|---------------------------------|----------------------------------||--
-|---------------------------------|----------------------------------||--
-|---------------------------------|----------------------------------||--
-|---------------------------------|----------------------------------||--
-|---------------------------------|----------------------------------||--
-|-0--12-0-9h10-0---6-0-5--5-3-----|-0--12-0-9h10-0---6-0-5--3h5------||--
                                                                      x4

Verse Riff:
                           /\/\/\
-|--------------------------------||---------------------------------------
-|--------------------------------||---------------------------------------
-|--------------------------------||---------------------------------------
-|--------------------------------||---------------------------------------
-|---------1------0---------------||---------------------------------------
-|--5-3-xx---5-xx---5-xxx-8-------||---------------------------------------
  P.M......................       x12


Verse Riff on Bass:
                        /\/\/\
-|-----------------------------||------------
-|--------8-----7-------5------||------------
-|--7-5-----7-----7------------||------------
-|-----------------------------||------------




Riff Variation before Solo:

           /\/\        /\/  /\/\
-|------------------------------||---------
-|------------------------------||---------
-|------------------------------||---------
-|------------------------------||---------
-|------------------------------||---------
-|-3-5-6-3h5---3-5-6-3h5--3h5---||---------
 

Solo: 
                                       \/ = inflection w/ whammy bar OR slide guitar
-|-----------------------------------------------------------------||---------
-|---15  15--------------------------------------------------------||---------
-|-----\/------16  16----------------------------------------------||---------
-|---------------\/-----16  16----9  9-----------------------------||---------
-|------------------------\/-------\/------------------------------||---------
-|-----------------------------------------------------------------||---------
                                                                   x3

Solo: 
                             bend 2-1/2 steps #         
-|----------------------------/------------------------------------||---------
-|---15  15------------------/-------------------------------------||---------
-|-----\/-------16  16------/--------------------------------------||---------
-|----------------\/-------7---------------------------------------||---------
-|-----------------------------------------------------------------||---------
-|-----------------------------------------------------------------||---------

Solo:
                                                   whole step #
-|-------------------------------------------------/\--------------||-------
-|--18-18-18-18-18-18-18-18-18-18-18-18-18-18-18-18  18------------||-------
-|-----------------------------------------------------------------||-------
-|-----------------------------------------------------------------||-------
-|-----------------------------------------------------------------||-------
-|-----------------------------------------------------------------||-------



   
Break after Solo:
                                                     /\/\/
-|--------------------------------------------------------||--
-|--------------------------------------------------------||--
-|--------------------------------------------------------||--
-|--------------------------------------------------(H)---||--
-|-7------7------7------7------7------7------7-------7----||--
-|---5-xx---5-xx---5-xx---5-xx---5-xx---5-xx---5-xxx------||--
 P.M................................................      x4








12. Light my way-
tuning:D A D G B E

i think this tab is right but not sure so good luck......
i gotta tell ya i have no clue what effects are used on this song 
but maybe one of you pedal guys can figure it out and tell me

key:
( ) = only last time

intro
E-22-22-22------22-22-22------22-22-
B-----------------------------------
G-----------------------------------
D-----------------------------------
A-----------------------------------
D-----------------------------------

verse 
E-----------------
B-----------------
G-----------------
D-----3-3---------
A-5-5-----3-3-3-3-
D-----------------

chorus 
E-------------------------
B-------------------------
G-------------------------
D-------------------------
A-------3-5-3-----------3-
D-0-0-0-------0-0-0-3-5---

verse 2
E-----------------
B-----------------
G-----------------
D-----3-3---------
A-5-5-----3-3-3-3-
D-----------------

i think a second guitar is playin this every few secs. while guitar 1 is
playin the main verse could be anything but my brothers moterolla cell phone
makes this same noise when i turns on and off but anyway i think this is how
its played

verse on guitar 2
E-------------------------------3h5p3-5p3h5-------------------------------
B-------------------------3h5p3-------------5p3h5-------------------------
G-------------------3h5p3-------------------------5p3h5-------------------
D-------------3h5p3-------------------------------------5p3h5-------------
A-------3h5p3-------------------------------------------------5p3h5-------
D-3h5p3-------------------------------------------------------------5p3h5-

breakdown 1
E-----------------------------------------------------------------
B-----------------------------------------------------------------
G-----7-------7-----------------------5-------5-------5-------5---
D---7---7---7---7-----3-------3-----5---5---5---5---5---5---5---5-
A-5-------5---------3---3---3---3-3-------3-------3-------3-------
D-----------------3-------3---------------------------------------

breakdown 2
E---------------
B-7-------5---5-
G-7---2---5---5-
D-7---3---5---5-
A-5---3---3---3-
D-----3---------

breakdown 3
E-----------
B-----------
G-----------
D-----------
A-3-5-3-5---
D---------0-

breakdown 4 
E-----------------
B-----------------
G-5-7-5-7---------
D-5-7-5-7-0-------
A-3-5-3-5-0-------
D---------0-(12/)-

order:
intro 1x
chorus 4x
verse 10x
chorus 4x
verse 2 10x
chorus 4x
breakdown 1 2x
breakdown 2 2x
breakdown 3 4x
breakdown 4 4x
chorus 8x







13. Getaway car-
Intro/Verse/"Bridge":

  4/4                   1________________  2________
E ||-------------------|-----------------||---------|
B ||*------------------|-----------8----*||-----5---|
G ||--2---------4---5--|-5---------------||-5-------|
D ||--3---------5--(5)-|-7---------------||-7-------|
A ||*------------------|----------------*||---------|
E ||-------------------|-----------------||---------|
      1 + 2 + 3 + 4 +    1 + 2 + 3 + 4 +   (Same rhythm)

 Chorus:                         Play
    C                 F      E  Staccato Dm   Dm7
E |-0---------------|-1-----0---------|-1-----1---------|
B |-1---------0-1-3-|-1-----0---3-1-0-|-3-----1---------|
G |-0---------0-0-0-|-2-----1---1-1-1-|-2-----2---------|
D |-2---------2-2-2-|-3-----2---2-2-2-|-0-----0---------|
A |-3---------3-3-3-|-3-----2---2---2-|-----------------|
E |-----------------|-1-----0---------|-----------------|
    1 + 2 + 3 + 4 +   1 + 2 + 3 + 4 +   1 + 2 + 3 + 4 +

    E     E7         Am                 F     E   staccato
E |-0-----0---------|(0)--------------|-1-----0---------|
B |-0-----3---------|-1---------0-1-3-|-1-----0---3-1-0-|
G |-1-----1---------|-2---------2-2-2-|-2-----1---1-1-1-|
D |-2-----2---------|-2---------2-2-2-|-3-----2---2-2-2-|
A |-2-----2---------|-0---------0-0-0-|-3-----2---2---2-|
E |-0-----0---------|-----------------|-1-----0---------|
    1 + 2 + 3 + 4 +   1 + 2 + 3 + 4 +   1 + 2 + 3 + 4 +   

   Dm    Dm7          E     E7
E |-1-----1---------|-0-----0---------|
B |-3-----1---------|-0-----3---------|
G |-2-----2---------|-1-----1---------|
D |-0-----0---------|-2-----2---------|
A |-----------------|-2-----2---------|
E |-----------------|-0-----0---------|
    1 + 2 + 3 + 4 +   1 + 2 + 3 + 4 +

That is basically the whole song give or take a few
nuances during the chorus; the fill that rings during
the second verse; and the solo.
here are a few notes
that Morello plays during the solo:
   
E |-5-----8--
B |-5-----8--
G |-5---7-8--
D |-5---7----
A |-5---7----
E |----------

That ought to give you an idea of what he's doing. 








14. The last remaining light-
Standard Tuning (EADGBE)
 
 
Intro:
E|----------------------------
B|--6-----5-----8-----5-------
G|----7-----7-----7-----7-----
D|----------------------------
A|---------------------------- x2
E|----------------------------
 
 
Verse(part 1):
It doesnt quite repeat itself all the way through so i tabbed the whole thing
Just follow along with
the lyrics and it should be easy enough.
E|---------------------------------------------------------------
B|--6-----8-----8-----6---------6-----8-----8-----6--------------
G|----7-----9-----9-----7---------7-----9-----9-----7------------
D|---------------------------------------------------------------
A|---------------------------------------------------------------
E|---------------------------------------------------------------
  "Roll me on..."                    "Break my bones..."
 
E|---------------------------------------------------------------
B|--6-----8-----8-----6---------6-----5-----8-----6--------------
G|----7-----9-----9-----7---------7-----7-----7------------------
D|---------------------------------------------------------------
A|---------------------------------------------------------------
E|---------------------------------------------------------------
  "Drown me in..."              "Where I watch..."
 
E|---------------------------------------------------------------
B|--6-----5-----8-----5------------------------------------------
G|----7-----7-----7-----7----------------------------------------
D|---------------------------------------------------------------
A|---------------------------------------------------------------
E|---------------------------------------------------------------
 

E|---------------------------------------------------------------
B|--6-----8-----8-----6---------6-----8-----8-----6--------------
G|----7-----9-----9-----7---------7-----9-----9-----7------------
D|---------------------------------------------------------------
A|---------------------------------------------------------------
E|---------------------------------------------------------------
    "Girl, I smoke..."                "Down your throat..."
 
E|---------------------------------------------------------------
B|--6---6---6----8---8---8----8---8---8----6---6---6-------------
G|----7---7--7-----9---9--9-----9---9--9-----7---7--7------------
D|---------------------------------------------------------------
A|---------------------------------------------------------------
E|---------------------------------------------------------------
           "Through your spine..."
 
E|---------------------------------------------------------------
B|--6---6---6----8---8---8----8---8---8----6---------------------
G|----7---7--7-----9---9--9-----9---9--9-------------------------
D|---------------------------------------------------------------
A|---------------------------------------------------------------
E|---------------------------------------------------------------
  "Where I watch..."
 
 
 

Chorus:
E|--------0--------------3--------------7--------------7---------
B|------1----1---------0----0---------7----7---------7----7------
G|----2--------2-----0--------0-----7--------7-----7--------7----
D|--3------------3-2------------2-9------------9-5------------5--
A|---------------------------------------------------------------
E|---------------------------------------------------------------
                                  "And if you don't believe..."
 
*chorus ending 1*
When you get to the 2nd chorus in the song play this after
repeating the above 3 times:
 
E|--------7---------7----------
B|------7----7--------7--------
G|----7--------7--------7------
D|--9------------9--------9----
A|-----------------------------
E|-----------------------------
    "liiiiiiiigghhtt"
 
*chorus ending 2*
The third time the song comes to the chorus is right at the end
After you repeat the chorus 3 times, finish the song off
with this:
 
E|--------7--------------7--------------7--------------7---------
B|------7----7---------7----7---------7----7---------7----7------
G|----7--------7-----7--------7-----7--------7-----7--------7----
D|--9------------9-5------------5-9------------9-5------------5--
A|---------------------------------------------------------------
E|---------------------------------------------------------------
    "liiiiiiiigghhtt"             "liiiiiiiigghhtt"
 
E|--------7--------------7--------------7------------------------
B|------7----7---------7----7---------7----7---------------------
G|----7--------7-----7--------7-----7--------7-------------------
D|--9------------9-5------------5-9------------------------------
A|---------------------------------------------------------------
E|---------------------------------------------------------------
    "liiiiiiiigghhtt"             "liiiiiiiiiiiiigggghhhhtttt"
 
 
 

Solo(part 1):
E|---------------------------------------------------------------
B|---------------------------------------------------------------
G|---------------------------------------------------------------
D|-------------------------2-3-/5-3-2----2h3-2-2~--2h3-2---------
A|--5--7-8--7h8-7--3---3h5-------------------------------3~------
E|---------------------------------------------------------------
 
E|---------------------------------------------------------------
B|---------------------------------------------------------------
G|---------------------------------------------------------------
D|--x-x--3-2-----------------------------------------------------
A|--x-x------3-3/7-7b8-------------------------------------------
E|---------------------------------------------------------------
 
 
 

Verse(part 2):
E|---------------------------------------------------------------
B|--6-----8-----8-----6---------6-----8-----8-----6--------------
G|----7-----9-----9-----7---------7-----9-----9-----7------------
D|---------------------------------------------------------------
A|---------------------------------------------------------------
E|---------------------------------------------------------------
    "The seven moons..."             "Heaven waits..."
 
E|---------------------------------------------------------------
B|--6---6---6----8---8---8----8---8---8----6---6---6-------------
G|----7---7--7-----9---9--9-----9---9--9-----7---7--7------------
D|---------------------------------------------------------------
A|---------------------------------------------------------------
E|---------------------------------------------------------------
 
E|---------------------------------------------------------------
B|--6---6---6----5---5---5----8---8---8----6---------------------
G|----7---7--7-----7---7--7-----7---7--7-------------------------
D|---------------------------------------------------------------
A|---------------------------------------------------------------
E|---------------------------------------------------------------
  "Where you watch..."
 

Solo(part 2):
E|---------------------------------------------------------------
B|----6---------------------6---6-----6-8--10-8----10-8----6-----
G|--7---7-5-----5-7-------7---7-----7------------------------7\--
D|------------7--------------------------------------------------
A|---------------------------------------------------------------
E|---------------------------------------------------------------
 
E|--12-----------------------------------------------------------
B|-----13-10---9------------10-9---------10-9--------------------
G|---------------12-10-12--------12-12--------12\10-9----9-9b10--
D|-----------------------------------------------------7---------
A|---------------------------------------------------------------
E|---------------------------------------------------------------
 
E|----------------------------------5-10-------------------------
B|--------------------------------6------------------------------
G|------------------------------7--------------------------------
D|--10-12---10-7----5---------7----------------------------------
A|--------------------5\---/5------------------------------------
E|---------------------------------------------------------------
 
 
 

Structure:
This is how to put it all together. 
 
Intro          x2
Verse(part 1)
Verse(part 2)
Chorus         x3
Solo(part 1)
Verse(part 2)
Chorus         x3 (+ chorus ending #1)
Solo(part 2)
Chorus         x3 (+ chorus ending #2)

THERE YOU HAVE IT. ALL 14 SONGS AND HYPNOTIZE HAD 4 STARS, LIGHT THE WAY
HAD NO RATING AND THE REST HAD 5 STARS. I DON'T DESERVE BUT 15% CREDIT
KNOW WHAT I'M SAYING. HOPE YOU LIKED IT.
Suggest correction
comments
print report bad tab
12 comments total. Showing first comments.
0 reply
benneboy 10 Apr 25, 2004 12:00 AM

ahh, there not that good, if your gonna copy these tabs at least figure out some effects that Morello uses. For example he uses a Digitech Whammy pedal on like a stone and sets it 2 octaves higher to create that awsome sound, i doubt though the notes on the tab would line up with them (too High).

0 reply
shawj14 47 Jun 14, 2004 12:00 AM

on i am the highway, are you sure its Am or is it :
E 0
B 0
G 2
D 2
A 0
E x

0 reply
skillfc 10 May 26, 2005 12:00 AM

Well I agree with Benneboy, Another wierd thing i thought was u put heavy distortion? i dont think tom morello's distorted? He uses overdrive. Alot smoother sound then. If you look at the tab book it has all the proper pedal names for all his solos and little bits like the whammy pedal..its a well cool book. The tabs alrite tho.

guest
You may want to rate the tab now too:
select rating
Wanna post a correction for this tab? Suggest correction