Oops, an error
Loading. Please wait.

Bring Em Back Alive Bass Tab

version 3
version 3

Whole song

Interactive

1,709 views 1 this week
3 commentsread comments
1 2 3 4 5
please rate
add to favorites
launch autoscroll
font size
0
reset
guitar tuner
Autoscroll
slow
fast
+/-
esc
set tempo
stop
Help us to improve Ultimate-Guitar.com Take our survey!
×
Author
-----------------------------------------------------------------------------
			     Bring Em Back Alive - Audioslave
-----------------------------------------------------------------------------

Tabbed By : Chris Parsons
e-mail: christopher20788@aol.com

Tuning: D A D G

A ruff transcription by me.

Intro
G|-----------------------------|
D|----9------------------------|
A|----------------8---7--------|
D|-9----9-6h7--9----9----9-12--|

G|------------------------------|
D|-----------------12/14-14-14--|
A|------------------------------|
D|-2-2-2-2-2-2-2-2--------------|

Chorus
G|----------------------------|----------------------------|
D|----9-----------------------|----7---6h7-----------------|
A|----------------8---7----5--|-5----5-----5-7-8---7--5-7--|
D|-9----9-6h7--9----9----9----|------------------9---------|

G|----------------------------|
D|----------------------------|
A|-5-7-8---7--5-7-8---7--5-7--|  (ending to last 2 choruses)
D|-------9----------9---------|

Verse
G|---------------------------|
D|--------8------7--------5--|
A|-7-5--x---7--x---7--x-x----|
D|---------------------------|

Pre-Solo
G|-----------------14-14-14-14----------|
D|-----------------------------b14-b14--|
A|--------------------------------------|
D|-9-9-9-9-9-9-9-9----------------------|

Solo
G|-----------------------------|
D|-----------------------------|
A|-2-0-2------2-0-2-----2-0-2--|
D|-------2-3--------0----------|

G|-----------------------------|
D|-----------------------------|
A|---0-2--------0-2-------0-2--|
D|-4-----2-3--4-----0---4------|

After Solo
G|------------|
D|------------|
A|------------|
D|-2-2--------|

G|-----------------|
D|-----------------|
A|-----------------|
D|-2-2-2-2-2-2-2-2-|


 | /  slide up
| \  slide down
| h  hammer-on
| p  pull-off
| ~  vibrato
| +  harmonic
| x  Mute note
=============================================================================
Suggest correction
Give kudos to tab author, rate the tab!
1 2 3 4 5
comments
print report bad tab
3 comments total.
0 reply
shoebox_of_lies 2,833 wrote on September 6 2006, 05:39 pm

it seems good, by im pretty sure he uses a 5 string bass and hits most of those notes an octave lower.

0 reply
squier-sucks132 40 wrote on December 10 2006, 03:22 pm

Tim Commerford DOES NOT use a 5 string bass on this song. the tab is fine he is just missing a quite a few notes.

+1 reply
bassplayer275 212 wrote on March 29 2007, 11:39 am

he doesnt use a five string, but he tunes his four string BEAD. so yes, he does play it an octave lower

guest
You may want to rate the tab now too:
select rating
Wanna post a correction for this tab? Suggest correction