Oops, an error
Loading. Please wait.

Bring Em Back Alive Bass Tab

version 4
version 4

Whole song

Interactive

864 views 1 this week
2 commentsread comments
1 2 3 4 5
please rate
add to favorites
launch autoscroll
font size
0
reset
guitar tuner
Autoscroll
slow
fast
+/-
esc
set tempo
stop
Help us to improve Ultimate-Guitar.com Take our survey!
×
Author
Difficulty
intermediate
Audioslave-Bring em back alive
Tabbed by BNT_88

Tab key

h-hammer
s-slide
b-bend string


Intro
G|-----------------------------|
D|----9---7h8------------------|
A|----------------8---7--------|
E|-7----7------7----7----7-10--|

G|-----------------|              |--------------|
D|-----------------|  Just before |-12s14-14-14--|
A|-----------------|    chorus    |--------------|
E|-0-0-0-0-0-0-0-0-|              |--------------|

Chorus
G|----------------------------|----------------------------|
D|----9---7h8-----------------|----7---6h7-----------------|
A|----------------8---7----5--|-5----5-----5-7-8---7--5-7--|
E|-7----7------7----7----7----|------------------7---------|

G|----------------------------|
D|----------------------------|
A|-5-7-8---7--5-7-8---7--5-7--|  (ending to last 2 choruses)
E|-------7----------7---------|

Verse
G|--------------------------|
D|--------------------------|
A|--------------------------|
E|---3-0-0-7-0-0-5-0-**-3---|

Pre-Solo
G|-----------------|         |---14-14-14---|                        |----|
D|-----------------| then    |---14-14-14---| then                   |b14-|  
A|-----------------|         |--------------|back to                 |----|
E|-7-7-7-7-7-7-7-7-|         |--------------|        E|-7-7-7-7-7-|  |----|

Solo
G|-----------------------------|
D|-9-7-9------9-7-9-----9-7-9--|
A|-------7-8-------------------|
E|------------------10---------|

G|-----------------------------|
D|---7-9--------7-9-------7-9--|
A|-9-----7-8--9---------9------|
E|------------------10---------|

After Solo
G|------------|
D|------------|
A|------------|
E|-0-0--------|

G|-----------------|      |-------------|
D|-----------------| then |-12s14-14-14-|
A|-----------------|      |-------------|
E|-0-0-0-0-0-0-0-0-|      |-------------|


Slight adjustment to the tabbed by Piequat, just feel you missed some bits out dude> :)
Suggest correction
Give kudos to tab author, rate the tab!
1 2 3 4 5
comments
print report bad tab
2 comments total.
0 reply
Maitinin 19,518 wrote on November 14 2006, 09:17 am

good tab, but it's a bit confusing, not that it's wrong, but there's surely a more simple way to lay it out...

0 reply
BNT_88 31 wrote on November 14 2006, 12:15 pm

sorry if it confusing, it my first attempt at drafting a tab. hope its right tho, seemed right to me :)

guest
You may want to rate the tab now too:
select rating
Please do not post tabs as comments. Select "correction" instead!