Oops, an error
Loading. Please wait.

Broken City Bass Tab

version 1
version 1

Whole song

Interactive

6,985 views 12 this week
no commentswrite comment
1 2 3 4 5
excellent!
x 5
add to favorites
launch autoscroll
font size
0
reset
guitar tuner
Tab Pro tools
  • play this tab
  • loop segment
  • change instrument
  • show fretboard
  • metronome
Autoscroll
slow
fast
+/-
esc
set tempo
stop
Contributor
Tuning
D A D G B E
Audioslave - Broken city
Drop D

Intro
|----------|x4
|----------|
|----------|
|-x3-5-5-5-|

Verse 
|--------------------------------------------------------------------|
|-------3-5-5------------------------------3-5-5---------------------|
|-------------3-5--------------------------------3-5-----------------|
|-3-5-5-----------3-5-5--------------3-5-5-----------3-5-5---x-0-3-5-|

Chorus (sounds about right)
|------------------------------------|
|---------5-------5-----5-6-3---3-/8-|
|-5-----3---5---3-----5-------5------|
|---5-0-------3----------------------|

Verse 

Chorus

Solo/Verse 3
|--------------------------------|
|-------3-5-5--------------------|
|-------------3-5----------------|
|-3-5-5-----------5-5-5--x-0-3-5-|

Chorus

Outro = Verse 1 +
|---------------------------------|
|-------3-5-5-----------3-5-5-----|
|-------------3-5-------------3-5-|
|-3-5-5-----------3-5-5-----------|
(play till the fade)
comments
print report bad tab
I want to post or [tab]
guest
You may want to rate the tab now too:
select rating
Please do not post tabs as comments. Select "correction" instead!