Oops, an error
Loading. Please wait.

Broken City Tab

version 1
version 1

Whole song

Interactive

4,828 views 6 this week
9 commentsread comments
1 2 3 4 5
x 11
add to favorites
launch autoscroll
font size
0
reset
how to read this tab
guitar tuner
Autoscroll
slow
fast
+/-
esc
set tempo
stop
Help us to improve Ultimate-Guitar.com Take our survey!
×
Author
Difficulty
novice
-------------------------------------------------------------------------------
                             Broken City - Audioslave
-------------------------------------------------------------------------------
Tabbed by:Bas
Email:b_vice@hotmail.com

Tuning: DADGBe

I've made two variatons, one on the verse and one on the chorus,
of which I think Tom Morello is more likely to play it that way... anyway
enjoy the tab, I think it sounds pretty close...

Intro

e|---------------------------------------------------------------------------|
B|---------------------------------------------------------------------------|
G|---------------------------------------------------------------------------| 4x
D|---------------------------------------------------------------------------|
A|---------------------------------------------------------------------------|
D|-0h3-5-5-5-----------------------------------------------------------------|

Verse

e|---------------------------------------------------------------------------|
B|---------------------------------------------------------------------------|
G|---------------------------------------------------------------------------|
D|-------3-5-5---------------------------------------------------------------|
A|------------3-5------------------------------------------------------------|
D|-3-5-5----------3-5-5------------------------------------------------------|

  VARIATON:
  (I like this one better)
e|---------------------------------------------------------------------------|
B|---------------------------------------------------------------------------|
G|---------------------------------------------------------------------------|
D|---------------------------------------------------------------------------|
A|---------------------------------------------------------------------------|
D|-3-5-5--15-17-17--10-12--3-5-5---------------------------------------------|

Chorus

 [  play 8 times]   then [      ]    [variation on first part ]
e|-------------------------1-------|------------------------------------------|
B|-------------------------1-O-6---|------------------------------------------|
G|-------------------------3-R-5---|------------------------------------------|
D|-------------------------3---3---|------------------------------------------|
A|-5~---3-5-3h5-3------------------|------------------------------------------|
D|---------------------------------|-12~----10-12-10h12-10--------------------|
(note: use a whammy pedal @ 1 oct. harmonize and play it as a wah pedal)
(2nd note: at the 2nd part of the chorus, stroke the chord one time, and
let it fade with the whammy played as wah...)


Verse


Chorus

 [  play 8 times]   then [      ]
e|-------------------------1-------------------------------------------------|
B|-------------------------1-O-6---------------------------------------------|
G|-------------------------3-R-5---------------------------------------------|
D|-------------------------3---3---------------------------------------------|
A|-5~---3-5-3h5-3------------------------------------------------------------|
D|---------------------------------------------------------------------------|


  Solo 1

e|-----------------------------------------------------------------------------|
B|--11----11-11br-------------11-11-------13b-11~------11-11-------11----------|
G|-----12---------12-10-12----------12-10---------12---------12-10----12--10-12|
D|-----------------------------------------------------------------------------|
A|-----------------------------------------------------------------------------|
D|-----------------------------------------------------------------------------|

e|---------------------------------------------------------------------------|
B|-11-------13b-11-------13b-11----------------------------------------------|
G|----12p10--------12p10--------12p10-12~\\\---------------------------------|
D|---------------------------------------------------------------------------|
A|---------------------------------------------------------------------------|
D|---------------------------------------------------------------------------|

  Verse + Background fills:

e|---------------------------------------------------------------------------|
B|--8-8--8-8--8-8--8-8--8-8--------------------------------------------------|
G|--0-0--0-0--0-0--0-0--0-0---<_not 100% about those 0's---------------------|
D|---------------------------------------------------------------------------|
A|---------------------------------------------------------------------------|
D|---------------------------------------------------------------------------|
   

  Chorus

  Outro (just repeat the main verse line over and over, with the background fills
         and at last this solo:)



  Solo 2
 [ Fade in ] [little rest time]           [slow bend]  
e|---------------------------------------------------------------------------|
B|--+12---------------------------11-------13b~--13r-11----------------------|
G|--+12------------------------------12-10--------------12-10-12~------------|
D|---------------------------------------------------------------------------|
A|---------------------------------------------------------------------------|
D|---------------------------------------------------------------------------|
 [with harmonics I think]

| /  slide up
| \  slide down
| h  hammer-on
| p  pull-off
| ~  vibrato
| +  harmonic
| x  Mute note
===============================================================================
Suggest correction
comments
print report bad tab
9 comments total. Showing first comments.
0 reply
JimmyC8277 20 Dec 02, 2006 02:31 PM

very nice tab...5 stars...both variations are nice, the first one is easier, i will be playing that version, but they sound almost exactly similar

0 reply
bvice 306 Dec 02, 2006 02:35 PM

hey thanks, and I don't want to sound very ungrateful, but I think you rated it 4 stars instead of 5 (by accident?) :S anyway, thanks for your comment and rating!!

0 reply
Shihad Owns! 10 Dec 02, 2006 05:22 PM

This is a great tab man. Thanx, I've been waiting months for this tab:-)

guest
You may want to rate the tab now too:
select rating
Wanna post a correction for this tab? Suggest correction