Oops, an error
Loading. Please wait.

Broken City Tab

version 2
version 2

Whole song

Interactive

1,271 views 6 this week
6 commentsread comments
1 2 3 4 5
worth learning
x 5
add to favorites
launch autoscroll
font size
0
reset
how to read this tab
guitar tuner
Autoscroll
slow
fast
+/-
esc
set tempo
stop
Help us to improve Ultimate-Guitar.com Take our survey!
×
Author
Difficulty
FamousA 3,929
novice
=====================================================================================
Title: *Broken City*
Artist: Audioslave
Album: Revolations
=====================================================================================
Written by Chris Cronell; Audioslave
Produced by 
=====================================================================================
Label: Sony
Year: 2006
=====================================================================================
Track: -7-
=====================================================================================
Transcripted by Asa Gaston
=====================================================================================
Tuning: STANDARD ( E A D G B E )
=====================================================================================

-------------------------------------------------------------------------------------
Guitar 1 -{ E A D G B E }- Tom Morello - Lead
-------------------------------------------------------------------------------------

=====================================================================================
INTRO
=====================================================================================

     PM - - - - - - - - - - - - - - - }
E|--------------------|------------------|\
B|--------------------|------------------|\\--------
G|--------------------|------------------|\\\ Play |
D|---4-4--6--6--6-----|-4-4--6--6--6-----|///  2x  |
A|---4-4--6--6--6-----|-4-4--6--6--6-----|//--------
E|---2-2--4--4--4-----|-2-2--4--4--4-----|/

=====================================================================================
VERSE
=====================================================================================

    
E|-----------------|---------------|\
B|-----------------|---------------|\\--------
G|-----------------|---------------|\\\ Play |
D|---4--6-6--------|-4--6-6--------|///  4x  |
A|---4--6-6--------|-4--6-6--------|//--------
E|---2--4-4--------|-2--4-4--------|/

=====================================================================================
CHORUS
=====================================================================================


E|-------------------------------|\
B|-------------------------------|\\--------
G|---8---6-8-6-8-6-8---6-8-6-8-6-|\\\ Play |
D|---8---6-8-6-8-6-8---6-8-6-8-6-|///  4x  |
A|---6---4-6-4-6-4-6---4-6-4-6-4-|//--------
E|-------------------------------|/

=====================================================================================
INTERLUDE
=====================================================================================


   w/ effects
E|------------------------------------------------|
B|---7----------7-----------7----------7----------|
G|---7----------7-----------7----------7----------|
D|---7----------7-----------7----------7----------|
A|---5----------5-----------5----------5----------|
E|------------------------------------------------|

=====================================================================================
VERSE 2
=====================================================================================

    
E|-----------------|---------------|\
B|-----------------|---------------|\\--------
G|-----------------|---------------|\\\ Play |
D|---4--6-6--------|-4--6-6--------|///  4x  |
A|---4--6-6--------|-4--6-6--------|//--------
E|---2--4-4--------|-2--4-4--------|/

=====================================================================================
CHORUS
=====================================================================================


E|-------------------------------|\
B|-------------------------------|\\--------
G|---8---6-8-6-8-6-8---6-8-6-8-6-|\\\ Play |
D|---8---6-8-6-8-6-8---6-8-6-8-6-|///  4x  |
A|---6---4-6-4-6-4-6---4-6-4-6-4-|//--------
E|-------------------------------|/

=====================================================================================
INTERLUDE
=====================================================================================


   w/ effects
E|------------------------------------------------|
B|---7----------7-----------7----------7----------|
G|---7----------7-----------7----------7----------|
D|---7----------7-----------7----------7----------|
A|---5----------5-----------5----------5----------|
E|------------------------------------------------|

=====================================================================================
GUITAR SOLO
=====================================================================================

E|--------------------------------------------10b(1/2)----------------|
B|---7h9-9p7-11--11b(1/2)-9-7-9---12-12----------------11pbr(1/2)-9---|
G|--------------------------------------13-11-------------------------|
D|--------------------------------------------------------------------|
A|--------------------------------------------------------------------|
E|--------------------------------------------------------------------|


E|-------------------------------------------------9b(full)--------------10b(1/2)----------------|
B|---11-11b(1/2)-------12-----------11b(1/2)----------------11pbr(1/2)-9----------11pbr(1/2)-9---|
G|---------------13-11----13--11h13----------13p11-----------------------------------------------|
D|-----------------------------------------------------------------------------------------------|
A|-----------------------------------------------------------------------------------------------|
E|-----------------------------------------------------------------------------------------------|

=====================================================================================
VERSE 3
=====================================================================================


E|--------------------------------|\
B|--------------------------------|\\--------
G|---13-13-13--13-13-13-13--13-13-|\\\ Play |
D|---13-13-13--13-13-13-13--13-13-|///  8x  |
A|---11-11-11--11-11-11-11--11-11-|//--------
E|--------------------------------|/

=====================================================================================
GUITAR BREAK
=====================================================================================

               w/ wah-wah
E|-----------------------------------------|
B|---7-------------------------------------|
G|---7-------------------------------------|
D|---7----------4-6-6--4-6-6--4-6-6--4-6-6-|
A|---5-------------------------------------|
E|-----------------------------------------|

=====================================================================================
OUTRO
=====================================================================================

    w/ wah-wah                                          fading out
E|-------------------------------------|\           |----------------------------------|
B|-------------------------------------|\\--------  |---10-10-12bbb(grad. bend)-(full)-|
G|-------------------------------------|\\\ Play |  |---10-10--------------------------|
D|---4-6-6--4-6-6-----4-6-6--4-6-6-----|///  4x  |  |----------------------------------|
A|----------------4-6--------------4-6-|//--------  |----------------------------------|
E|-------------------------------------|/           |----------------------------------|

*************************************************************************************
Guitar Legend
*************************************************************************************

| h - Hammer On
| p - Pull Off
| H - Harmonic 
| P.H. - Pinch Harmonic
| H.H. - Harp Harmonic
| tr~~ - Trill
| ~ - Vibrato
| / - Slide Into
| \ - Slide Out Of
| b - Bend - (1/4): Fourth-Bend  (1/2): Half-Bend (1): Full-Bend   , ect.
| r - Bend Release
| bh - Bend Hold
| pb - Pre-Bend
| pbr - Pre-Bend Release
| ( ) - Ghost Note
| P.M. - Palm-Muted

*************************************************************************************
NOTE: Pretty good song. Nice little slow with a little bit of blues by Morello.
      Please RATE and COMMENT. Well... ...ENJOY!!!

                                     -Asa (myspace.com/asagaston)

-Any requests....just name it, really
Suggest correction new What's this?
You can suggest a correction to this tab. Community and Mods will review your correction and vote to approve or reject it.
comments
print report bad tab
6 comments total. Showing first comments.
0 reply
santhony1987 196 wrote on December 6 2006, 07:30 pm

With all due respect, have you even heard this song?

0 reply
MT's #1 Fan 510 wrote on December 7 2006, 09:39 am

Fantastic. way better than ver 1 good tab this guy above me is nuts

0 reply
John W 355 wrote on January 21 2007, 02:29 pm

wrong.

guest
You may want to rate the tab now too:
select rating
Please do not post tabs as comments. Select "correction" instead!