Oops, an error
Loading. Please wait.

Cochise Tab

version 2
97,488 views 1 this week
23 commentsread comments
1 2 3 4 5
x 50
add to favorites
launch autoscroll
font size
0
reset
how to read this tab
guitar tuner
×
Best way to learn
"Cochise"
Autoscroll
slow
fast
+/-
esc
set tempo
stop

I want this tab!

Sorry, this artist has told us we can not show this tab.

Help us change their mind!
Tell us why you want to learn this song or why it is important to you, and
we will share these directly with the artist or their representative.
Your words and your story can make a difference. It works!

To understand more on what is happening, please read this article:
Why Songs on Ultimate Guitar Are Licensed (time to read: 1 minute)

comments
print report bad tab
23 comments total. Showing first comments.
+3 reply
rastarich25 10 Dec 14, 2002 07:00 PM

hey ur almost right with the very beggining but Tom Morello mutes all of his strings and puts his delay very high and hits his pick ups. then the second part of the intro he closes his wah and does what u say he does. Other than that u did a good job.

+3 reply
rastarich25 10 Dec 14, 2002 07:00 PM

hey ur almost right with the very beggining but Tom Morello mutes all of his strings and puts his delay very high and hits his pick ups. then the second part of the intro he closes his wah and does what u say he does. Other than that u did a good job.

+2 reply
IllusMgc 10 Jan 13, 2003 07:00 PM

hold on, my tab thinbg got f***ed up. here it is corrected:
Ok. The verse actually goes like this, which is alot easier: (from gutar world)
---------------------------------------
---------------------------------------
---------------------------------------
--0/2--0---0--------0/2--0-------------
---------2---2--------------2----------
---------------3-0-------------3--0----
you just got it on 1 string. and there are no chords in the chorus. its this:
---------------------------------------
---------------------------------------
---------------------------------------
-0/2--0/2--0------------------0--------
--------------2----------0--2----------
------------------3--0--3--------------

lots of times. its a good try though.

guest
You may want to rate the tab now too:
select rating
Wanna post a correction for this tab? Suggest correction