Oops, an error
Loading. Please wait.

Curse Tab

version 2
version 2

Whole song

Interactive

3,451 views 1 this week
2 commentsread comments
1 2 3 4 5
excellent!
x 4
add to favorites
launch autoscroll
font size
0
reset
how to read this tab
guitar tuner
Autoscroll
slow
fast
+/-
esc
set tempo
stop
Help us to improve Ultimate-Guitar.com Take our survey!
×
Difficulty
novice
INTRO

E-------------------------------------------------0-----------0--------|
B------------------2------------------2-----------------0--------------|
G------------------2------------------2--------------------------------|
D-------------2----2----2-------2-----2-----2--------------------------|
A-------------2----0----2-------2-----0-----2--------------------------|
E----14-----0---------0-------0-----------0----------------------------|


VERSE

E----------------------------0-----0----------------------------------|
B-------------------------------0-------------------------------------|
G-------2-------------2----------------4---2----------4---2---6---4---|
D---2---2---2-----2---2---2------------4---2---2------4---2---6---4---|
A---2---0---2-----2---0---2------------2---0---2------2---0---4---2---|
E---0-------0-----0-------0--------------------0----------------------|


CHORUS
Gtr.1

E--------------------------------0------------------------------------|
B--------------------------------0------------------------------------|
G---2----6----5----2------------------6----5----4--------4------------|
D---2----6----5----2---------2--------6----5----4----4---4---44444444-|
A---0----4----3----0---------2--------4----3----2----0---2---22222222-|
E----------------------------0----------------------------------------|
		                                           |_________|
				                              PM
Gtr.2 - Tremolo
E---------------------------------------------------------------------|
B---------------------------------------------------------------------|
G---------------------------------------------------------------------|
D-----2--------2------------------------------------------------------|
A-----------2-----2---4-------2---4---0---3--------3--0---------------|
E---------------------------------------------------------------------|

-VERSE
-CHORUS

BRIDGE
Phaser
E---------------------------------------------------------------------|
B---------------------------------------------------------------------|
G--------2---------------2----------4----2----6----4------------------|
D---4----2----2-----4----2----2-----4----2----6----4------------------|
A---4----0----2-----4----0----2-----2----0----4----2------------------|
E---2---------0-----2---------0---------------------------------------|

SOLO

E---------------------------------------------------------------------|
B------------12---9-----10---9---7---9---7----------------------------|
G--------9-----------------------------------9------------------------|
D----11-------------------------------------------11--9--11-----------|
A---------------------------------------------------------------------|
E---------------------------------------------------------------------|

E---------------------------------------------------------------------|
B------------12---9-----10---9---7------------------------------------|
G--------9---------------------------9------------9-------------------|
D----11------------------------------------9-h11----------------------|
A---------------------------------------------------------------------|
E---------------------------------------------------------------------|

E---------------------------------------------------------------------|
B------------12---9-----10--9--10-h12------10--9--10-h12--------------|
G--------9------------------------------------------------------------|
D----11---------------------------------------------------------------|
A---------------------------------------------------------------------|
E---------------------------------------------------------------------|

E-----------------------------------------------------------------------|
B-----10--9--10-h12----10--9------------------12---9---9----------------|
G-----------------------------11--9-------9--------------~CRAZY EFFECT~-|
D-------------------------------------11--------------------------------|
A-----------------------------------------------------------------------|
E-----------------------------------------------------------------------|

INTERLUDE
Gently strum

E----------------------------------------------------------------------|
B----------------------------------------------------------------------|
G---2----6----5----2----5-------------6----5---2-----------------------|
D---2----6----5----2----5--------2----6----5---2-----------------------|
A---0----4----3----0----3--------2----4----3---0-----------------------|
E--------------------------------0------------------/12----------------|

Tremolo - played over the top:
E---------------------------------------------------------------------|
B---------------------------------------------------------------------|
G---------------------------------------------------------------------|
D-----2--------2------------------------------------------------------|
A-----------2-----2---4-------2---4---0---3--------3--0---------------|
E---------------------------------------------------------------------|

ENDING

E---------------------------0--------------------------------------0--|
B---------------------------0--------------------------------------0--|
G--------6----5----2------------6----5----2----5----4----4----4----0--|
D----2---6----5----2-----2------6----5----2----5----4----4----4----2--|
A----2---4----3----0-----2------4----3----0----3----2----0----2----2--|
E----0-------------------0-----------------------------------------0--|
Suggest correction
What's this?
You can suggest a correction to this tab. Community and Mods will review your correction and vote to approve or reject it.
comments
print report bad tab
2 comments total.
0 reply
joshdasian 106 wrote on August 7 2008, 01:58 pm

great job

0 reply
HGF 357 wrote on September 16 2008, 11:39 am

if you add bar chords, its perfect
-0 0 2 2 4 3
-2 0 2 4 5 3
-2 1 3 4 6 5
-2 2 4 4 6 5
-0 2 4 2 4 3
-x 0 2 x x x now its perfect

guest
You may want to rate the tab now too:
select rating
Please do not post tabs as comments. Select "correction" instead!