Oops, an error
Loading. Please wait.

Dandelion Tab

version 1
version 1

Intro

Solo

Whole song

Interactive

3,046 views 30 this week
no commentswrite comment
1 2 3 4 5
excellent!
x 2
add to favorites
launch autoscroll
font size
0
reset
how to read this tab
guitar tuner
Tab Pro tools
  • play this tab
  • loop segment
  • change instrument
  • show fretboard
  • metronome
Autoscroll
slow
fast
+/-
esc
set tempo
stop
Contributor
tunning: standard E

intro :  |-0---0--0-0--0-----0--0--0--0--0--0---------|
         |-5---5--5-5--5-----10-10-10-10-10-10--------|
         |-6---6--6-6--6-----11-11-11-11-11-11--------|
         |-7---7--7-7--7-----12-12-12-12-12-12--------|
         |-0---0--0-0--0-----0--0--0--0--0--0---------|
         |--------------------------------------------|      X4

verse1:  |-0---0--0-0--0-----0--0--0--0--0--0---------|
         |-5---5--5-5--5-----10-10-10-10-10-10--------|
         |-6---6--6-6--6-----11-11-11-11-11-11--------|
         |-7---7--7-7--7-----12-12-12-12-12-12--------|
         |-0---0--0-0--0-----0--0--0--0--0--0---------|
         |--------------------------------------------|      X3

         |-------3--3---3-3---------------------------|
         |-0--0--0--0---2-2--0~-----------------------|
         |-1--1--0--0---3-3--1~-----------------------|
         |-2--2--0--0---0-0--2~-----------------------|
         |-2--2--2--2--------2~-----------------------|
         |-0--0--3--3--------0~-----------------------|

         |-0---0--0-0--0-----0--0--0--0--0--0---------|
         |-5---5--5-5--5-----10-10-10-10-10-10--------|
         |-6---6--6-6--6-----11-11-11-11-11-11--------|
         |-7---7--7-7--7-----12-12-12-12-12-12--------|
         |-0---0--0-0--0-----0--0--0--0--0--0---------|
         |--------------------------------------------|      X3

         |-------3--3---3-3---------------------------|
         |-0--0--0--0---2-2--0~-----------------------|
         |-1--1--0--0---3-3--1~-----------------------|
         |-2--2--0--0---0-0--2~-----------------------|
         |-2--2--2--2--------2~-----------------------|
         |-0--0--3--3--------0~-----------------------|

prechor: |--------------------------------------------------------------|
         |-7-7-7-8-7--x-x-x-x-x-7-7-8-7--9-9-9-10-9-x-x-x-x-x-9-9-10-9--|
         |-7-7-7-7-7--x-x-x-x-x-7-7-7-7--9-9-9-9--9-x-x-x-x-x-9-9-9--9--|
         |-7-7-7-7-7--x-x-x-x-x-7-7-7-7--9-9-9-9--9-x-x-x-x-x-9-9-9--9--|
         |-5-5-5-5-5--x-x-x-x-x-5-5-5-5--7-7-7-7--7-x-x-x-x-x-7-7-7--7--|
         |--------------------------------------------------------------|

         |-----------------------------|
         |-----------------------------|
         |-3--3--3--3--3--3--3--3------|
         |-4--4--4--4--4--4--4--4------|
         |-4--4--4--4--4--4--4--4------|
         |-2--2--2--2--2--2--2--2------| X2

chorus:  |---------2--2-2-----------------------------|
         |-0--0-0--3--3-3-2--2--2-2-2--2--------------|
         |-1--1-1--2--2-2-3--3--3-3-3--3--------------|
         |-2--2-2--0--0-0-4--4--4-4-4--4--------------|
         |-2--2-2---------4--4--4-4-4--4--------------|
         |-0--0-0---------2--2--2-2-2--2--------------| X3

         |---------2--2-2-------|
         |-0--0-0--3--3-3-2~----|
         |-1--1-1--2--2-2-3~----|
         |-2--2-2--0--0-0-4~----|
         |-2--2-2---------4~----|
         |-0--0-0---------2~----|

verse2

prechorus

chorus

bridge   |---------3-3--3--------------------------------|
         |-5-5--5--3-3--3------7--8-7---8-7-8-7--5-5--5--|
         |-5-5--5--4-4--4--5---7--7-7---7-7-7-7--5-5--5--|
         |-5-5--5--5-5--5--5-5-7--7-7---7-7-7-7--5-5--5--|
         |-3-3--3--5-5--5--3-5-5--5-5---5-5-5-5--3-3--3--|
         |---------3-3--3----3---------------------------| 
           
         |-3-3--3--------------------------------|
         |-3-3--3------7--8-7-------7--8-7-------|
         |-4-4--4--5---7--7-7---3---7--7-7-------|
         |-5-5--5--5-5-7--7-7---5-5-7--7-7-------|
         |-5-5--5--3-5-5--5-5---5-5-5--5-5-------|
         |-3-3--3----3------------3--------------|

solo     |--------------------------------------------------------------------|
         |----------------------x-x-x-x-----------x-x-----------x-------12p10-|
         |-10h12-10-10-10-10-12-x-x-x-x-------10--x-x--12p10-10-x-12p10-12p10-|
         |-------10-10-10-10-12-x-x-x-x-10h12-10--x-x--12p10-10-x-12p10-------|
         |----------------------x-x-x-x-10h12-----x-x-----------x-------------|
         |--------------------------------------------------------------------|
 
         |---------------------------------------------------------------------|
         |-x-------------13-x-12-x-10-x-12-x-10-x------------------------------|
         |-x-12p10-12p10-12-x-12-x-10-x-12-x-10-x-12--10-----------------------|
         |-x-12p10-12p10----x----x----x----x----x-12-----12-10-12-10------10-12|
         |-x----------------x----x----x----x----x--------------------10-12-----|
         |---------------------------------------------------------------------|

         |--------------------------------------------------------------------|
         |----------------------------------------x----------x----------------|
         |----------------------10-10h12-10h12-10-x-10h12-10-x-10-12-12-12b14-|
         |------10-12-----10-12-------------------x----------x----------------|
         |-10-12-----10-12------------------------x----------x----------------|
         |--------------------------------------------------------------------|
       
         |----------------------------------------------------------|
         |----------------------------------------------------------|
         |-12-10-----12-12-12b14-10-12-12-12-12b14r12-10-----12b14--|
         |------12-10-----------------------------------12-10-------|
         |----------------------------------------------------------|
         |----------------------------------------------------------|

         |---10--------13--13---------------13--------------13-------------------|
         |-10--10-13-----------13---12--13------13--12--13------13--13--13/15-15-|
         |----------10---10--10---10--10--10--10--10--10--10--10--10--10---------|
         |-----------------------------------------------------------------------|
         |-----------------------------------------------------------------------|
         |-----------------------------------------------------------------------|

         |---------------------------------------------------|
         |-15-15-15-15-15-15-15-15-15-15-15-15-15-15b17////--|
         |---------------------------------------------------|
         |---------------------------------------------------|
         |---------------------------------------------------|
         |---------------------------------------------------|
prechorus
         |--------------------------------------------------------------|
         |-7-7-7-8-7--x-x-x-x-x-7-7-8-7--9-9-9-10-9-x-x-x-x-x-9-9-10-9--|
         |-7-7-7-7-7--x-x-x-x-x-7-7-7-7--9-9-9-9--9-x-x-x-x-x-9-9-9--9--|
         |-7-7-7-7-7--x-x-x-x-x-7-7-7-7--9-9-9-9--9-x-x-x-x-x-9-9-9--9--|
         |-5-5-5-5-5--x-x-x-x-x-5-5-5-5--7-7-7-7--7-x-x-x-x-x-7-7-7--7--|
         |--------------------------------------------------------------|

         |-----------------------------|
         |-----------------------------|
         |-3--3--3--3--3--3--3--3------|
         |-4--4--4--4--4--4--4--4------|
         |-4--4--4--4--4--4--4--4------|
         |-2--2--2--2--2--2--2--2------| X2

chorus

end on |-----| 
       |-2~--|
       |-3~--|
       |-4~--|
       |-4~--|
       |-2~--|
comments
We did not receive enough feedback on this tab! Please rate:
print report bad tab
1 2 3 4 5
I want to post or [tab]
guest
You may want to rate the tab now too:
select rating
Please do not post tabs as comments. Select "correction" instead!