Oops, an error
Loading. Please wait.

Doesnt Remind Me Tab

version 1
version 1

Solo

Whole song

Interactive

11,640 views 9 this week
2 commentsread comments
1 2 3 4 5
x 3
add to favorites
launch autoscroll
font size
0
reset
how to read this tab
guitar tuner
Autoscroll
slow
fast
+/-
esc
set tempo
stop
Help us to improve Ultimate-Guitar.com Take our survey!
×
Author
this is how i play the solo



e|---------------------------------------------------------------------------|
B|--------------------------------------------------------12br---------------|
G|-14b-14b-14b-14b-14b-14-12-14-14b-14p12--------------12-12br----------12---|
D|----------------------------------------14-12-14--14---------14-12-14------|
A|---------------------------------------------------------------------------|
E|---------------------------------------------------------------------------|

e|------------------------------12br-----------17sbr-------------------------|
B|-------12br----------------12-12br-/14-15-17-17sbr-17p15----17-------------|
G|-------12br----------12-14-------------------------------16----------------|
D|-14-12------14-12-14-------------------------------------------------------|
A|---------------------------------------------------------------------------|
E|---------------------------------------------------------------------------|

e|-15----------------------------15----------------15------------------------|
B|-------15----15----14----15----------15----14----------14----15----15----15|
G|----12----12----12----12----12----12----12----12----12----12----12----12---|
D|---------------------------------------------------------------------------|
A|---------------------------------------------------------------------------|
E|---------------------------------------------------------------------------|
                       [ Wah on!                                             
e|-12-15-12--15-15-17b-----15----------15----------15------------------------|
B|-------------------------------15----------15----------15-15tsb-----------|
G|----------------------12----12----12----12----12----12---------------------|
D|---------------------------------------------------------------------------|
A|---------------------------------------------------------------------------|
E|---------------------------------------------------------------------------|

e|------------------------15-------------------------------15-15-17b-17-15|
B|-17--17-15-17--17-15-17----17-15-17--17-17--17--17-15-17----------------|
G|------------------------------------------------------------------------|
D|------------------------------------------------------------------------|
A|------------------------------------------------------------------------|
E|------------------------------------------------------------------------|

e|-17b-17b-17-15-17-15-17------------------15-----15-15-17b-17-15-|
B|------------------------17-15-17--17--17----17------------------|
G|----------------------------------------------------------------|
D|----------------------------------------------------------------|
A|----------------------------------------------------------------|
E|----------------------------------------------------------------|
 

e|---17-15-14--------17-15-14--------15-14-12------------------12-14-15-14-12|
B|-17--------17-15-14--------17-15-14--------15-14-12--12-14-15--------------|
G|---------------------------------------------------14----------------------|
D|---------------------------------------------------------------------------|
A|---------------------------------------------------------------------------|
E|---------------------------------------------------------------------------|
                                                        
e|---------------------------------------------------------------------------|
B|-15-14-12------------------------------------------------------------------|
G|---------14-13-12---//t15--//t18-//t19-//t20-//t21-//t22-//t24-------------|
D|---------------------------------------------------------------------------|
A|---------------------------------------------------------------------------|
E|---------------------------------------------------------------------------|
Suggest correction
Give kudos to tab author, rate the tab!
1 2 3 4 5
comments
print report bad tab
2 comments total.
0 reply
bvice 306 Nov 22, 2007 04:22 PM

this tab looks kind of familiar to me... ;)

0 reply
stratmaster100 10 Dec 18, 2007 05:34 PM

this definitly is better than 1 star
I'll give it 3

guest
You may want to rate the tab now too:
select rating
Wanna post a correction for this tab? Suggest correction