Oops, an error
Loading. Please wait.

Doesnt Remind Me Tab

version 1
version 1

Whole song

Interactive

35,630 views 1 this week
3 commentsread comments
1 2 3 4 5
worth learning
x 10
add to favorites
launch autoscroll
font size
0
reset
how to read this tab
guitar tuner
Autoscroll
slow
fast
+/-
esc
set tempo
stop
Help us to improve Ultimate-Guitar.com Take our survey!
×
Author
-------------------------------------------------------------------------------
                             Doesn't Remind Me - Audioslave
-------------------------------------------------------------------------------
Tabbed by: Andrés Durante (aka andr3s)
Email: j00.andr3s@gmail.com

Tuning: Standard (EADGBe)

/ Intro:

                                            I walk...
e|-----------0-------------|-----0-------------------|         
B|-----------0----------0--|-----2-----x-------------|         
G|-----1-----1----1-----0--|-----2-----x----1-----1--|x2  
D|-----2----------2--------|--2-----2--x----2-----2--|         
A|--2-----2----------2-----|--0-----0--2-------2-----|         
E|--0-----0----------0-----|-----------0-------0-----|

/ Verse:

e|-----------0-------------|-----0-------------------|         e|-----------0-------------|-----0-----0-|
B|-----------0----------0--|-----2-----x-------------|         B|-----------0----------0--|-----2-----0-|
G|-----1-----1----1-----0--|-----2-----x----1-----1--|x7 Then: G|-----1-----1----1-----0--|-----2-----1-|
D|-----2----------2--------|--2-----2--x----2-----2--|         D|-----2----------2--------|--2-----2--2-|
A|--2-----2----------2-----|--0-----0--2-------2-----|         A|--2-----2----------2-----|--0-----0--2-|
E|--0-----0----------0-----|-----------0-------0-----|         E|--0-----0----------0-----|-----------0-|

/ Chorus:

e|------------------------|-------------------------|          e|------------------------|         e|---|
B|------------------------|-------------------------|          B|-------------2----2--2--|         B|-2-| 
G|--1----1--1--6----6--6--|--6--6--4--1----1--1--1--|x3 Then:  G|--1----1--1--2----2--2--| End in: G|-2-|
D|--2----2--2--7----7--7--|--7--7--5--2----2--2--2--|          D|--2----2--2--2----2--2--|         D|-2-|
A|--2----2--2--7----7--7--|--7--7--5--2----2--2--2--|          A|--2----2--2--0----0--0--|         A|-0-|
E|--0----0--0--5----5--5--|--5--5--3--0----0--0--0--|          E|--0----0--0-------------|         E|---| 

/ Bridge:

e|-5-----------5-----5--|--5-----------5-----5--|----------------------------|--------------------------|
B|-6-----------6-----6--|--6-----------6-----6--|--8-------------8-------8---|--8-------------8-------8-|
G|-7-----------7-----7--|--7-----------7-----7--|--9-------------9-------9---|--9-------------9-------9-|
D|-7------7-------7-----|--7------7-------7-----|--10------------10------10--|--10------------10------10|
A|-5------5-------5-----|--5------5-------5-----|--10------10--------10------|--10------10--------10----|
E|----------------------|-----------------------|--8-------8---------8-------|--8-------8----------8----|

e|-5-----------5-----5--|--5-----------5-----5--|----------------------------|--------------------------|
B|-6-----------6-----6--|--6-----------6-----6--|--3-------------3-------3---|--0-------------0-------0-|
G|-7-----------7-----7--|--7-----------7-----7--|--4-------------4-------4---|--1-------------1-------1-|
D|-7------7-------7-----|--7------7-------7-----|--5-------------5-------5---|--2-------------2-------2-|
A|-5------5-------5-----|--5------5-------5-----|--5-------5----------5------|--2-------2----------2----|
E|----------------------|-----------------------|--3-------3----------3------|--0-------0----------0----|

e|-5-----------5-----5--|--5-----------5-----5--|----------------------------|--------------------------|
B|-6-----------6-----6--|--6-----------6-----6--|--8-------------8-------8---|--8-------------8-------8-|
G|-7-----------7-----7--|--7-----------7-----7--|--9-------------9-------9---|--9-------------9-------9-|
D|-7------7-------7-----|--7------7-------7-----|--10------------10------10--|--10------------10------10|
A|-5------5-------5-----|--5------5-------5-----|--10------10--------10------|--10------10--------10----|
E|----------------------|-----------------------|--8-------8---------8-------|--8-------8----------8----|

e|-5-----------5-----5--|--5-----------5-----5--|         e|-----|
B|-6-----------6-----6--|--6-----------6-----6--|         B|--3--|
G|-7-----------7-----7--|--7-----------7-----7--| End in: G|--4--|
D|-7------7-------7-----|--7------7-------7-----|         D|--5--|
A|-5------5-------5-----|--5------5-------5-----|         A|--5--|
E|----------------------|-----------------------|         E|--3--|

 
| /  slide up
| \  slide down
| h  hammer-on
| p  pull-off
| ~  vibrato
| +  harmonic
| x  Mute note
===============================================================================

/ Order:
  
Intro
Verse 
Chorus
Verse 
Chorus
Bridge
Solo
Chorus
Verse 
Suggest correction
comments
print report bad tab
3 comments total.
0 reply
avenged7foldrox 117 wrote on October 20 2005, 06:58 pm

where is the solo?
you have it in the order but not in the tab. *1* retard put it in

0 reply
greeleydave 10 wrote on July 8 2013, 06:01 am

He hasn't earned the retard award for leaving out the solo. Sure, it should be there, but considering how difficult it is to decipher, I will say he's not quite retarded. Least everything else works fine.

0 reply
STERIOGRAM134 40 wrote on November 26 2005, 11:31 am

horrible... imo. i like the one by bvice better.

guest
You may want to rate the tab now too:
select rating
Please do not post tabs as comments. Select "correction" instead!