Oops, an error
Loading. Please wait.

Doesnt Remind Me Bass Tab

version 2
version 2

Whole song

Interactive

4,613 views 1 this week
3 commentsread comments
1 2 3 4 5
accurate
x 5
add to favorites
launch autoscroll
font size
0
reset
guitar tuner
Autoscroll
slow
fast
+/-
esc
set tempo
stop
Help us to improve Ultimate-Guitar.com Take our survey!
×
Contributor
Difficulty
novice
Intro (guitar starts)
---------------------------------|-------------------------------|
---------------------------------|-------------------------------|
--------5-7-7-5-7\---------------|------5-7-7-5-7\---------------|
--0-5h7------------0-3-3-5-5-3-0-|--0-7------------0-3-3-5-5-3-0-|

Verse  (repeat as necessary)
|-------------------------------|
|o-----------------------------o|
|o-----5-7-7-5-7\--------------o|
|--0-7------------0-3-3-5-5-3-0-|

Chorus (repeat as necessary)
|------------------------------|
|o----------------------------o|
|o-------5--5-----------------o|
|--0--0--------5-5-3-0--0-0-0--|

Solo (repeat as necessary)
|---------------------------------|
|o-------------------------------o|
|o-7-7-7-7-5-5-5-5---------------o|
|------------------5-5-3-0--0-0-0-|


The song is easy enough to figure out. During the bridge, I couldn't hear any bass so I 
tab anything for it. It's not a very hard song to play.
Just listen for the timings and you wont have any problems.
comments
print report bad tab
3 comments total.
+3 reply
AlecBeCrazy 20 wrote on July 12 2007, 04:16 am

wow this is terribly written. theres a loooot of improv in the chorus and verse that u completely missed, and u have to be mental to not hear the bass in the bridge. i suggest u listen to the song some more and actually tab the whole thing out b4 u just submit a half finished tab.

0 reply
Creepingivy 14 wrote on November 21 2013, 06:59 am

It's a bad tab, but I'd reckon AlecBeCrazy should step up if he's so tuned to the song....

0 reply
beatlesgirl88 12 wrote on May 5 2014, 10:26 am

AlecBeCrazy, give us the goods!

I want to post or [tab]
guest
You may want to rate the tab now too:
select rating
Please do not post tabs as comments. Select "correction" instead!