Oops, an error
Loading. Please wait.

Doesnt Remind Me Tab

version 2
version 2

Whole song

Interactive

114,413 views 111 this week
99 commentsread comments
1 2 3 4 5
x 81
add to favorites
launch autoscroll
font size
0
reset
how to read this tab
guitar tuner
backing track
0:00
0:00
Autoscroll
slow
fast
+/-
esc
set tempo
stop
Author
\
-------------------------------------------------------------------------------
                             Doesn't Remind Me - Audioslave
-------------------------------------------------------------------------------
Tabbed by: bas
Email: b_vice@hotmail.com


Tuning: EADGBe


Intro/Verse

Chords:

E A E
 
Strum the E chord like this: down, up, down, up, up, down, up,
And the A chord like this  : down, up, down,
And the E chord after the A: up, up, down, up.

NOTE: with the first down strokes from the E chord play only the E (E|-0----0-----0-etc.)
and with the upstrokes don't play that E


[Chorus]

Chords: E D A E

or

e|---------------------------------------------------------------------------|
B|---------------------------------------------------------------------------|
G|-------7--7----------------------------------------------------------------|
D|2--2---7--7---7-7---2--2-2-------------------------------------------------|
A|2--2---5--5---7-7---2--2-2-------------------------------------------------|
E|0--0----------5-5---0--0-0-------------------------------------------------|



[Verse]

Chords:

E A E (Strummed same as Intro/Verse)



[Chorus]

Chords: E D A E

or

e|---------------------------------------------------------------------------|
B|---------------------------------------------------------------------------|
G|-------7--7----------------------------------------------------------------|
D|2--2---7--7---7-7---2--2-2-------------------------------------------------|
A|2--2---5--5---7-7---2--2-2-------------------------------------------------|
E|0--0----------5-5---0--0-0-------------------------------------------------|



[Bridge]

Chords: Dm   C    A Am    G E



[Solo]

I'm not sure if the delay is on in the whole solo, or only in the part with the
wah wah...

e|---------------------------------------------------------------------------|
B|-15--15--15--15--15-------------------------------------12br---------------|
G|-14b-14b-14b-14b-14b-14-12-14-14b-14p12--------------12-12br----------12---|
D|----------------------------------------14-12-14--14---------14-12-14------|
A|---------------------------------------------------------------------------|
E|---------------------------------------------------------------------------|

e|------------------------------12br-----------17sbr-------------------------|
B|-------12br----------------12-12br-/14-15-17-17sbr-17p15----17-------------|
G|-------12br----------12-14-------------------------------16----------------|
D|-14-12------14-12-14-------------------------------------------------------|
A|---------------------------------------------------------------------------|
E|---------------------------------------------------------------------------|

e|-15----------------------------15----------------15------------------------|
B|-------15----15----14----15----------15----14----------14----15----15----15|
G|----12----12----12----12----12----12----12----12----12----12----12----12---|
D|---------------------------------------------------------------------------|
A|---------------------------------------------------------------------------|
E|---------------------------------------------------------------------------|
                       [ Wah on!                                             
e|-12-15-12--15-15-17b-----15----------15----------15------------------------|
B|-------------------------------15----------15----------15-15tsb\-----------|
G|----------------------12----12----12----12----12----12---------------------|
D|---------------------------------------------------------------------------|
A|---------------------------------------------------------------------------|
E|---------------------------------------------------------------------------|

e|------------------------15-------------------------------15-15-17b-17-15|
B|-17--17-15-17--17-15-17----17-15-17--17-17--17--17-15-17----------------|
G|------------------------------------------------------------------------|
D|------------------------------------------------------------------------|
A|------------------------------------------------------------------------|
E|------------------------------------------------------------------------|

e|-17b-17b-17-15-17-15-17------------------15-----15-15-17b-17-15-|
B|------------------------17-15-17--17--17----17------------------|
G|----------------------------------------------------------------|
D|----------------------------------------------------------------|
A|----------------------------------------------------------------|
E|----------------------------------------------------------------|
 
(I'm not 100% sure about this part, it's very fast and with the delay on, so
that's pretty confusing to me when tabbing it... it can be that he skips the second 17 15 14
17 15 14, I don't know, but you can always skip it if it's too long, or if you play it very
very fast you can just play it like this =P)
e|---17-15-14--------17-15-14--------15-14-12------------------12-14-15-14-12|
B|-17--------17-15-14--------17-15-14--------15-14-12--12-14-15--------------|
G|---------------------------------------------------14----------------------|
D|---------------------------------------------------------------------------|
A|---------------------------------------------------------------------------|
E|---------------------------------------------------------------------------|
                                                        Wah off!]
e|---------------------------------------------------------------------------|
B|-15-14-12-----------//t16--//t19-//t20-//t21-//t22-//t23-//t24-------------|
G|---------14-13-12---//t15--//t18-//t19-//t20-//t21-//t22-//t24-------------|
D|---------------------------------------------------------------------------|
A|---------------------------------------------------------------------------|
E|---------------------------------------------------------------------------|


[Chorus]

Chords: E D A E

or

e|---------------------------------------------------------------------------|
B|---------------------------------------------------------------------------|
G|-------7--7----------------------------------------------------------------|
D|2--2---7--7---7-7---2--2-2-------------------------------------------------|
A|2--2---5--5---7-7---2--2-2-------------------------------------------------|
E|0--0----------5-5---0--0-0-------------------------------------------------|


[Outro]

E A E (strummed same as Intro/verse)


Please mail any comments, etc.

Greetings,

Bas

===============================================================================



************************************

| br  Bend release
| p   Pull-off
| b   Bend
| /   Slide up

************************************
Suggest correction
comments
print report bad tab
99 comments total. Showing first comments.
0 reply
!_ToToy_! 40 Aug 31, 2005 08:00 PM

solo is awesome...omg

0 reply
bvice 336 Sep 01, 2005 08:00 PM

thx man

0 reply
bvice 336 Sep 01, 2005 08:00 PM

thx man

guest
You may want to rate the tab now too:
select rating
Wanna post a correction for this tab? Suggest correction