Oops, an error
Loading. Please wait.

Getaway Car bass

version 2
version 2

Whole song

Interactive

2,764 views 3 this week
1 commentread comment
1 2 3 4 5
x 4
add to favorites
×
Save as Personal and add changes to this tab that will be seen only by you. Learn more ›
×
You can save this tab as Personal to edit and correct it or add notes. All changes will be seen only by you. Learn more »
launch autoscroll
font size
0
reset
guitar tuner
backing track
0:00
0:00
edit
Autoscroll
slow
fast
+/-
esc
set tempo
stop
Author
Song: Getaway Car
Band: Aduioslave
Album: Audioslave
Bassist: Timmy C.


	Okay so this is an awsome song, not in the key of D minor (like other tabs say) it’s in
key of A minor. Timmy uses and octave pedal for this song, because that C note of the
is sooo thick it’s awsome. If you have a 5 string bass, it would sound good if you also 
the lower octave note also.

Example:
(Playing the Low E and A by itself because you can’t go any lower)
G|----------------|---------|
D|----------------|---------|
A|--5--3-----3--5-|---------|
E|--------0-------|--5------|
B|--3--1-----1--3-|---------|

Instead of:
G|----------------|---------|
D|----------------|---------|
A|--5--3----------|---------|
E|--------0--3----|--5------|

Anyway, that sounds good, but whatever.
The actual tabs don’t exactly show rythme, but the placment of the notes in the measures 
right one.


So It goes,
Chorus and 1st ending,
Verse
Chorus and 2nd Ending (Including solo Bass Line)
Chorus and 2nd Ending, then to ending where specified (playing the Part included)

Enjoy :)


G|-----------------------------------------------------|
D|-----------------------------------------------------|
A|---------------First verse, No Bass------------------|
E|-----------------------------------------------------|
B|-----------------------------------------------------|

Chorus
G|------------------|----------------|---------------|
D|-------------5-4--|-3--------------|---------------|
A|--3---------------|------7-----7-6-|-5---------5-3-|
E|------------------|----------------|---------------|


G|------------------|------------------------|---------------|
D|------------------|-----------5--7-----5-4-|-3-------------|
A|--2-----/7--------|--------7---------------|------7----7-6-|
E|--------------3-4-|-5----------------------|---------------|
                     ___________
                    |   1.
                    |
G|------------------|----------------|-----------------|---------|
D|------------------|----------------|-----------------|---------|
A|--5-------------5-|--7---------7-6-|-5----3------3-5-|---------|
E|-------------7----|----------------|----------0------|-5-------|
                            __________ ___________
                                      |   2.     >------>--------
                                      |
G|------------------|-----------------|---------|----------------|
D|------------------|--------------7--|---------|----------------|
A|-5---3-------3-5--|-----------------|-7--------|-5---3----3--5--|
E|---------0--------|--5--------------|---------|--------0-------|

-->------>--Play 3rd Chorus-->--------->------->---|

G|------------------|------------------|-----------|-------------|
D|------------------|------------------|-----------|-------------|
A|------------------|---5--3-------2-3-|-----------|-5--3--------|
E|-5----------------|---------0--3-----|--5--------|------0--3-4-|

                                       (to ending)(Solo)
G|------------------|-------------------|---------|--------------|
D|------------------|-------------------|---------|--------------|
A|------------------|---5---3-----------|---------|-5--3------2-3|
E|---5--------------|-----------0---3---|--5------|------0-0-3---|

G|------------------5-------|-------------------|--------------|
D|--------------7-----7-5---|-------------------|--------------|
A|--------5/7-------------7-|--5--3---------2-3-|--------------|
E|--5-----------------------|--------0--0-3-----|--5-----------|

G|--------------------|------------|--------------|----------|
D|--------------------|------------|--------------|----------|
A|---5--3---------2-3-|------------|--5--3--------|----------|
E|---------0--0-3-----|--5---------|---------0--3-|--5-------|

Verse
G|----------------|---------|------|------|
D|----------------|---------|--o//-|--o//-|
A|--5--3-----3--5-|---------|--//o-|--//o-|
E|--------0-------|--5------|------|------|

G|----------------|---------|
D|----------------|---------|
A|--5--3----------|---------|
E|--------0--3----|--5------|

Ending
G|------------|
D|------------|
A|------------|
E|--5---------|

Tabbed by BassIsMe

            
            
Suggest correction
Creating personal tab
Creating personal tab
You can edit any tab online and save it as your Personal.

You can edit, replace or remove any tab part or add personal notes – all changes will be seen only by you.

Personal tabs can be accessed anytime from any device, even offline.
Learn more »
comments
print report bad tab
1 comment total.
-1 reply
HawkBassNelson 91 May 07, 2011 03:36 PM

Not a very good tab. On a 4 string, this would be played in drop B tuning.

guest
You may want to rate the tab now too:
select rating
Wanna post a correction for this tab? Suggest correction