Oops, an error
Loading. Please wait.

Heavens Dead tab

version 2
version 2

Whole song

Interactive

6,148 views 12 this week
1 commentread comment
1 2 3 4 5
x 5
add to favorites
×
Save as Personal and add changes to this tab that will be seen only by you. Learn more ›
×
You can save this tab as Personal to edit and correct it or add notes. All changes will be seen only by you. Learn more »
launch autoscroll
font size
0
reset
how to read this tab
guitar tuner
edit
Autoscroll
slow
fast
+/-
esc
set tempo
stop
Author
-------------------------------------------------------------------------------
                             Heaven's Dead-Audioslave
-------------------------------------------------------------------------------
Tabbed by: DirkLance
Email: keithnate@AOL.com

Tuning: Drop D (DADGBE)

Intro/Verse: (This song isn't very fast, so the timing is easy. I didn't put slides in,
because the tab would become a little messy, but it sounds like Morello is sliding his
finger on the A string as he's switching frets.) 

e|-------------------------------------------------------| (x3)
B|-------------------------------------------------------|
G|-------------------------------------------------------|
D|-------------------------------------------------------|
A|9-9-9-10-10-10-7-7-7-9-9-9-5-5-5-7-7-7----------5-5-5--|
D|-0-0-0--0-—0—-0-0-0-0-0-0-0-0-0-0-0-0-0-9-11-12--0-0-0-|

Chorus 1: (This is a short chunk of the chorus...just strum the first two chords (the
pattern is easy), and play the last chord once and let it ring before you go back to the Verse)

e|------------------------|
B|------------------------|
G|------------------------|
D|--5—-7---3*-------------|
A|--5--7---3*-------------|
D|--5--7---3*-------------|

Verse Riff (x3)

Chorus 2: (This is the full chorus...but it's still just as simple.)

e|---------------| (x2)
B|---------------|
G|---------------|
D|--5--7--3--2---|
A|--5--7--3--2---|
D|--5--7--3--2---|

Solo: (This is one of the easier solos on the CD because it's pretty straight forward,
and Morello isn't using millions of pedals.  I've got the jist, but if anyone has any
corrections, e-mail them to me.)

e|-----------------------------------------------------------------------------|
B|--15-------------------------------------------------------------------------|
G|-------14b-12p11------------------------14----14p12p11h12h11—11 12p11--------|
D|12--12-----------14-12-14b14b14b12----12--12----------------14--------14p12--|
A|-----------------------------------14----------------------------------------|
D|-----------------------------------------------------------------------------|

e|---------14---------------|
B|------------15------------|
G|------14------------------|
D|--(12)--------------------|
A|14------------------------|
D|--------------------------|

Breakdown: (This is also questionable...but I think it sounds good. Let me know what
you guys think about this one too.)

e|-------------------------------------------| (x4)
B|-----------------------------------7-------|
G|-11-9-7-6------------------------5---------|
D|-0--0-0-0------------------4-5-7-----------|
A|-0--0-0-0-0-2--4-0-----3h5-----------------|
D|----------0-2--4-0-------------------------|

Chorus Riff (x2)
Verse Riff (x1)
Breakdown Riff (x4)

Well, that's the song. Like I said, any corrections would be more than welcome. This
is my first tab, so go easy! Any comments can be sent to keithnate@aol.com.  Thanks for
reading!

~DirkLance

| /  slide up
| \  slide down
| h  hammer-on
| p  pull-off
| ~  vibrato
|( ) harmonic
| x  mute note
| b  bend
===============================================================================

            
            
Suggest correction
Creating personal tab
Creating personal tab
You can edit any tab online and save it as your Personal.

You can edit, replace or remove any tab part or add personal notes – all changes will be seen only by you.

Personal tabs can be accessed anytime from any device, even offline.
Learn more »
comments
print report bad tab
1 comment total.
0 reply
DirkLance 106 Jul 01, 2005 08:00 PM

Thanks to Beauski111 for a correction on the harmonics at the end of the solo:

e--------------------------------------------
B----------------------7*--------------------
G-------------------7*---7*------------------
D----------------7*--------------------------
A--------------------------------------------
E--------------------------------------------

It sounds right to me, so try that instead. That makes most of the tab valid, except the Breakdown. I'm pretty sure that's NOT how he plays it, so if any of you guys have a better version, PLEASE send me it, Thanks.

guest
You may want to rate the tab now too:
select rating
Wanna post a correction for this tab? Suggest correction