Oops, an error
Loading. Please wait.

Hypnotize tab

version 2
version 2

Whole song

Interactive

3,813 views 9 this week
5 commentsread comments
1 2 3 4 5
x 3
add to favorites
×
Save as Personal and add changes to this tab that will be seen only by you. Learn more ›
×
You can save this tab as Personal to edit and correct it or add notes. All changes will be seen only by you. Learn more »
launch autoscroll
font size
0
reset
how to read this tab
guitar tuner
edit
Autoscroll
slow
fast
+/-
esc
set tempo
stop
band:Audioslave
album:Audioslave
song:Hypnotize
tuning:E A D G B E
date:December 12, 2002

key:
slow bend up = bu

intro and verse
E-0-----0-----------------------------------------------------|
B-0-----0-----------------------------------------------------|
G-2bu---4-----------------------------------------------------|
D-------------------------------------------------------------|
A-------------------------------------------------------------|
E-------------------------------------------------------------|

chorus 1
E-------------------------------------------------------------|
B-10-10-10-10-10-10-10--8-8-8-8-8-8-8-------------------------|
G--7--7--7--7--7--7--7--5-5-5-5-5-5-5-------------------------|
D--9--9--9--9--9--9--9--7-7-7-7-7-7-7-------------------------|
A-------------------------------------------------------------|
E-------------------------------------------------------------|

chorus 2 and 3
E---------|
B---------|
G-2-----4-|
D-2-----4-|
A-0-----2-|
E---------|

            
            
Suggest correction
Creating personal tab
Creating personal tab
You can edit any tab online and save it as your Personal.

You can edit, replace or remove any tab part or add personal notes – all changes will be seen only by you.

Personal tabs can be accessed anytime from any device, even offline.
Learn more »
Give kudos to tab author, rate the tab!
1 2 3 4 5
comments
print report bad tab
5 comments total. Showing first comments.
0 reply
ZeioMan 42 Jul 04, 2006 02:40 PM

Good tab, but I think you've got that last awesome riff of the song wrong. I should also add that I believe the song might be in good ol' Drop-B (BADGBe) tuning, like other tracks on the album.

That riff:
e|---------------------------|
B|---------------------------|
G|---------------------------|
D|---0-0----0-0----0-0-------|
A|0h2-2--0h2-2--0h2-2--------|
B|---------------------12\0--|

Bonus: (Possible) Post-solo melody.
e|------------------------------|
B|------------------------------|
G|2-2-2-------------------------|
D|------4444-2-2-0-0-0----------|
A|---------------------2222-0-0-|
B|------------------------------|

0 reply
shoebox_of_lies 2,843 Jul 04, 2006 04:06 PM

yeah, i noticed that last riff was off when i was playing along the other day, that seems right...the post solo thing i gotta double check

thanks

0 reply
syoaran931 10 Jun 06, 2009 08:31 PM

there should be a clamp thing on the first fret

guest
You may want to rate the tab now too:
select rating
Wanna post a correction for this tab? Suggest correction