Oops, an error
Loading. Please wait.
We have an official I Am The Highway tab made by UG professional guitarists. Check out the tab »
×
8,000 views 18 this week
1 commentread comment
1 2 3 4 5
x 11
add to favorites
×
Save as Personal and add changes to this tab that will be seen only by you. Learn more ›
×
You can save this tab as Personal to edit and correct it or add notes. All changes will be seen only by you. Learn more »
launch autoscroll
font size
0
reset
guitar tuner
backing track
0:00
0:00
edit
Autoscroll
slow
fast
+/-
esc
set tempo
stop
Author
Difficulty
Band: Audioslave
Song: I Am The Highway
Album: It was the fourth single, released in 2004
Tabbed for: Bass
Tuning: Normal (EADG)

Noticed that the other bass tab here for this song wasn't tabbed all out, so I decided 
do it, I hope this is at least 95% correct..

As all my other tabs, the thing YOU have to do is just to listen for timing and rythm, 
I'll think you'll get it! This song is pretty easy, but yet sooooo great! =D Please rate 
comment and most of all: ENJOY!

Audioslave - I Am The Highway (Bass)

Intro: (00:23)
G|-------------|-------------|-------------|-------------|
D|-------------|-------------|-------------|-------------|
A|-------------|-----------7-|-------------|-----------7-|
E|-5--5-5-5--3-|-5--5-5-5----|-5--5-5-5--3-|-5--5-5-5----|

Verse 1: (00:34)
G|-------------|-------------|-------------|-------------|
D|-------------|-----------5-|-------------|-------------|
A|-------------|-3--3-3--3---|-------------|-------------| x2
E|-1--1-1-1--3-|-------------|-3--3-3-3--0-|-5--5-5-5--3-|

G|-------------|------------|------------|-------------|
D|-------------|------------|------------|-------------|
A|-------------|-3----------|------------|-3-----------|
E|-1--1-1-1--3-|---5--5-5-5-|-3--3-3-3-3-|---5-5-5-5-3-|

G|-------------|------------|------------|-------------|
D|-------------|------------|------------|-------------|
A|-------------|-3----------|------------|-3---------2-|
E|-1--1-1-1--3-|---5--5-5-5-|-3--3-3-3-3-|---5-5-5-5---|

Chorus: (01:17)
G|-------------|-------------|-------------|-------------|
D|-------------|-------------|-------------|-------------|
A|-3--3-3-3--3-|-------------|-5--5-5-5--5-|-----------2-|
E|-------------|-3--3-3-3--5-|-------------|-5--5-5-5----|

G|-------------|-------------|-------------|-----------------|
D|-------------|-------------|-------------|-----------------|
A|-3--3-3-3--3-|-------------|-5--5-5-5--5-|-5-7-------2-5-7-|
E|-------------|-3--3-3-3--5-|-------------|-----0-0-0-------|

Fill: (01:43)
G|-------------|-------------|-------------|-------------|
D|-------------|-------------|-------------|-------------|
A|-------------|-----------7-|-------------|-----------7-|
E|-5--5-5-5--3-|-5--5-5-5----|-5--5-5-5--3-|-5--5-5-5----|

Verse 2: (01:53)
G|-------------|-------------|-------------|-------------|
D|-------------|-----------5-|-------------|-------------|
A|-------------|-3--3-3--3---|-------------|-------------| x2
E|-1--1-1-1--3-|-------------|-3--3-3-3--0-|-5--5-5-5--3-|

G|-------------|------------|------------|-------------|
D|-------------|------------|------------|-------------|
A|-------------|-3----------|------------|-3-----------|
E|-1--1-1-1--3-|---5--5-5-5-|-3--3-3-3-3-|---5-5-5-5-3-|

G|-------------|------------|------------|-------------|
D|-------------|------------|------------|-------------|
A|-------------|-3----------|------------|-3---------2-|
E|-1--1-1-1--3-|---5--5-5-5-|-3--3-3-3-3-|---5-5-5-5---|

Chorus: (02:38)
G|-------------|-------------|-------------|-------------|
D|-------------|-------------|-------------|-------------|
A|-3--3-3-3--3-|-------------|-5--5-5-5--5-|-------------|
E|-------------|-3--3-3-3--5-|-------------|-5--5-5-5--3-|

G|-------------|-------------|-------------|-------------|
D|-------------|-------------|-------------|-------------|
A|-3--3-3-3--3-|-------------|-5--5-5-5--5-|-----------2-|
E|-------------|-3--3-3-3--5-|-------------|-5--5-5-5----|

G|-------------|-------------|-------------|-------------|
D|-------------|-------------|-------------|-------------|
A|-3--3-3-3--3-|-------------|-5--5-5-5--5-|-----------2-|
E|-------------|-3--3-3-3--5-|-------------|-5--5-5-5----|

G|-------------|-------------|-------------|
D|-------------|-------------|-------------|
A|-3--3-3-3--3-|-------------|-5--5-5-5--5-|
E|-------------|-3--3-3-3--5-|-------------|

G|-----------------|    |-------------------|
D|-----------------|    |-------------------|
A|-5-7-------2-5-7-| x3 |-5-7-7-7-7-7-7-7-7-|
E|-----0-0-0-------|    |-------------------|

Solo: (03:29)
G|-----------------|-----------------|-----------------|
D|-----------------|-----------------|-----------------|
A|-----------------|-3-3-3-3-3-3-3-3-|-----------------|
E|-1-1-1-1-1-1-1-1-|-----------------|-3-3-3-3-3-3-3-3-|

G|-----------------|-----------------|-----------------|
D|-----------------|-----------------|-----------------|
A|-----------------|-----------------|-3-3-3-3-3-3-3-5-|
E|-5-7-5-0-0-0-0-0-|-1-1-1-1-1-1-1-3-|-----------------|

G|-----------------|-----------------|-----------------|
D|-----------------|---------7-7-7-5-|-----------------|
A|-----------------|-----------------|-----------------|
E|-3-3-3-3-3-3-3-3-|-5-5-5-5---------|-1-1-1-1-1-1-1-3-|

G|-----------------|-----------------|-----------------|
D|-----------------|-----------------|-----------------|
A|-3-3-3-3-3-3-3-3-|-----------------|-------------2-3-|
E|-----------------|-3-3-3-3-3-3-3-3-|-5-5-5-5-5-5-----|

G|-----------------|-----------------|-----------------|
D|-----------------|-----------------|-----------------|
A|-----------------|-3-3-3-3-3-3-3-3-|-----------------|
E|-1-1-1-1-1-1-1-1-|-----------------|-3-3-3-3-3-3-3-3-|

G|-----------------|
D|-----------------|
A|-----------------|
E|-5-5-5-5-5-5-5-5-|

Chorus: (04:13)
G|-------------|-------------|-------------|-------------|
D|-------------|-------------|-------------|-------------|
A|-3--3-3-3--3-|-------------|-5--5-5-5--5-|-------------|
E|-------------|-3--3-3-3--5-|-------------|-5--5-5-5--3-|

G|-------------|-------------|-------------|-------------|
D|-------------|-------------|-------------|-------------|
A|-3--3-3-3--3-|-------------|-5--5-5-5--5-|-----------2-|
E|-------------|-3--3-3-3--5-|-------------|-5--5-5-5----|

G|-------------|-------------|-------------|-------------|
D|-------------|-------------|-------------|-------------|
A|-3--3-3-3--3-|-------------|-5--5-5-5--5-|-----------2-|
E|-------------|-3--3-3-3--5-|-------------|-5--5-5-5----|

G|-------------|-------------|-------------|
D|-------------|-------------|-------------|
A|-3--3-3-3--3-|-------------|-5--5-5-5--5-|
E|-------------|-3--3-3-3--5-|-------------|

G|-----------------|    |-----|
D|-----------------|    |-----|
A|-5-7-------2-5-7-| x3 |-5-7-|
E|-----0-0-0-------|    |-----|

Outro: (05:06)
G|-------------|-------------|-------------|-------------|
D|-------------|-------------|-------------|-------------|
A|-------------|-----------7-|-------------|-------------|
E|-5--5-5-5--3-|-5--5-5-5----|-5--5-5-5--3-|-5--5-5-5--3-|

G|-------------|-------------|-------------|-------------|---|
D|-------------|-------------|-------------|-------------|---|
A|-------------|-----------7-|-------------|-------------|---|
E|-5--5-5-5--3-|-5--5-5-5----|-5--5-5-5--3-|-5--5-5-5--3-|-5-|


Thomas Lundesgaard, Norway

            
            
Suggest correction
Creating personal tab
Creating personal tab
You can edit any tab online and save it as your Personal.

You can edit, replace or remove any tab part or add personal notes – all changes will be seen only by you.

Personal tabs can be accessed anytime from any device, even offline.
Learn more »
comments
print report bad tab
1 comment total.
0 reply
mr.Rockeng 110 May 21, 2017 05:07 PM

takker for god tab.

guest
You may want to rate the tab now too:
select rating
Wanna post a correction for this tab? Suggest correction