Oops, an error
Loading. Please wait.
We have an official I Am The Highway tab made by UG professional guitarists. Check out the tab »
×
429 views 3 this week
no commentswrite comment
1 2 3 4 5
3 more votes to show rating
add to favorites
×
Save as Personal and add changes to this tab that will be seen only by you. Learn more ›
×
You can save this tab as Personal to edit and correct it or add notes. All changes will be seen only by you. Learn more »
launch autoscroll
font size
0
reset
guitar tuner
backing track
0:00
0:00
edit
Autoscroll
slow
fast
+/-
esc
set tempo
stop
Difficulty
INTRO:
----------------------------------------------------------|
----------------------------------------------2-----------|
---0------0-0-0-----------0-----0-0-0---------------------|
----------------------3-----------------------------------|

---------------------------------------------------------|
---------------------------------------------------------|
--0------0-0-0-----------0----0-0-0----------------------|
--------------------3----------------------3-------------|

VERSE 1:
-------------------------------------------------------------------------------------|
-------------------------------------------------------------------------------------|
-------------------------3------3-3-3-----3--------------------------0----0-0-0------|
--1------1-1-1-----1--------------------------3-----3-3-3--3---0------------------3--|

-----------------------------------------------------------------------------------------|
-----------------------------------------------------------------------------------------|
-------------------------3------3-3-3-----3--------------------------0----0-0-0---0-2-3--|
--1------1-1-1-----1--------------------------3-----3-3-3--3---0-------------------------|

------------------------------------------------------------------------------------|
------------------------------------------------------------------------------------|
-----------------0--3--0---0-0-0---0---------------------0---3--0--0-0-0---------¬--|
--1---1-1-1-------------------------------3----3-3-3--------------------------3-----|

-----------------------------------------------------------------------------------|
-----------------------------------------------------------------------------------|
-----------------0--3--0---0-0-0---0---------------------0---3--0--0-0-0-2-3----¬--|
--1---1-1-1-------------------------------3----3-3-3-------------------------------|

CHORUS:
------------------------------------------------------------------------------|
------------------------------------------------------------------------------|
-3--3-3-3--3-------------------5--5-5-5--5----0--0-0-0--0-2-3-----------------|
------------------3--3-3-3--3-------------------------------------------------|

------------------------------------------------------------------------------|
------------------------------------------------------------------------------|
-3--3-3-3--3------------------5--5-5-5--5---------------------5---------------|
-----------------3--3-3-3--3-------------------0--0-0-0--0--------------------|

INTRO RIFF:
----------------------------------------------------------|
----------------------------------------------2-----------|
---0------0-0-0-----------0-----0-0-0---------------------|
----------------------3-----------------------------------|

---------------------------------------------------------|
---------------------------------------------------------|
--0------0-0-0-----------0----0-0-0----------------------|
--------------------3----------------------3-------------|

VERSE 2:
-----------------------------------------------------------------------------------------|
-----------------------------------------------------------------------------------------|
-------------------------3------3-3-3-----3--------------------------0----0-0-0---0-2-3--|
--1------1-1-1-----1--------------------------3-----3-3-3--3---0-------------------------|

-----------------------------------------------------------------------------------------|
-----------------------------------------------------------------------------------------|
-------------------------3------3-3-3-----3--------------------------0----0-0-0---0-2-0--|
--1------1-1-1-----1--------------------------3-----3-3-3--3---0-------------------------|

------------------------------------------------------------------------------------|
------------------------------------------------------------------------------------|
-----------------0--3--0---0-0-0---0---------------------0---3--0--0-0-0---------¬--|
--1---1-1-1-------------------------------3----3-3-3--------------------------3-----|

-----------------------------------------------------------------------------------|
-----------------------------------------------------------------------------------|
-----------------0--3--0---0-0-0---0---------------------0---3--0--0-0-0-2-3----¬--|
--1---1-1-1-------------------------------3----3-3-3-------------------------------|

CHORUS:
------------------------------------------------------------------------------|
------------------------------------------------------------------------------|
-3--3-3-3--3-------------------5--5-5-5--5----0--0-0-0--0-2-3-----------------|
------------------3--3-3-3--3-------------------------------------------------|

------------------------------------------------------------------------------|
------------------------------------------------------------------------------|
-3--3-3-3--3-------------------5--5-5-5--5----0--0-0-0--0-2-3-----------------|
------------------3--3-3-3--3-------------------------------------------------|

------------------------------------------------------------------------------|
------------------------------------------------------------------------------|
-3--3-3-3--3-------------------5--5-5-5--5----0--0-0-0--0-2-3-----------------|
------------------3--3-3-3--3-------------------------------------------------|

---------------------------------------------------------------------------------------------------|
---------------------------------------------------------------------------------------------------|
-3--3-3-3--3------------------5--5-5-5--5-----------------5--5-5-5--5-----------------5--5-5-5--5--|
-----------------3--3-3-3--3------------------0--0-0-0--0----------------0--0-0-0--0---------------|

BRIDGE:
-----------------------------------------------------------------------------------|
-----------------------------------------------------------------------------------|
--------------------0---3-3-3-3-3-3-3-0------------------------0-2-0----------2-3--|
-1-1-1-1-1-1-1----------------------------3-3-3-3-3-3-3-0-----------0-0-0----------|

-------------------------------------------------------------------------------------|
-------------------------------------------------------------------------------------|
--------------------0---3-3-3-3-3-3-3-5--------------------7----0-0-0-0-12-12-12-10--|
-1-1-1-1-1-1-1----------------------------3-3-3-3-3-3-3------------------------------|

--------------------------------------------------------------------------------|
--------------------------------------------------------------------------------|
--------------------0---3-3-3-3-3-3-3-3------------------------0-0-0-0-0-0-2-2--|
-1-1-1-1-1-1-1----------------------------3-3-3-3-3-3-3-3-----------------------|

--------------------------------------------------------------------------------|
--------------------------------------------------------------------------------|
--------------------0---3-3-3-3-3-3-3-3------------------------0-0-0-0-0-0-0-0--|
-1-1-1-1-1-1-1----------------------------3-3-3-3-3-3-3-3-----------------------|

CHORUS:
--------------------------------------------------------------------------|
--------------------------------------------------------------------------|
-3--3-3-3--3-------------------5--5-5-5--5----0--0-0-0--0-----------------|
------------------3--3-3-3--3---------------------------------------------|

------------------------------------------------------------------------------|
------------------------------------------------------------------------------|
-3--3-3-3--3-------------------5--5-5-5--5----0--0-0-0--0-2-3-----------------|
------------------3--3-3-3--3-------------------------------------------------|

------------------------------------------------------------------------------|
------------------------------------------------------------------------------|
-3--3-3-3--3-------------------5--5-5-5--5----0--0-0-0--0-2-3-----------------|
------------------3--3-3-3--3-------------------------------------------------|

---------------------------------------------------------------------------------------------------|
---------------------------------------------------------------------------------------------------|
-3--3-3-3--3------------------5--5-5-5--5-----------------5--5-5-5--5-----------------5--5-5-5--5--|
-----------------3--3-3-3--3------------------0--0-0-0--0----------------0--0-0-0--0---------------|

OUTRO:
----------------------------------------------------------|
----------------------------------------------2-----------|
---0------0-0-0-----------0-----0-0-0---------------------|
----------------------3-----------------------------------|


---------------------------------------------------------|
---------------------------------------------------------|
--0------0-0-0-----------0----0-0-0----------------------|
--------------------3------------------------------------|

OUTRO  x2

End on open A.
Let ring.

            
            
Suggest correction
Creating personal tab
Creating personal tab
You can edit any tab online and save it as your Personal.

You can edit, replace or remove any tab part or add personal notes – all changes will be seen only by you.

Personal tabs can be accessed anytime from any device, even offline.
Learn more »
Give kudos to tab author, rate the tab!
1 2 3 4 5
comments
print report bad tab
guest
Wanna post a correction for this tab? Suggest correction