Oops, an error
Loading. Please wait.
2,639 views 1 this week
4 commentsread comments
1 2 3 4 5
x 4
add to favorites
launch autoscroll
font size
0
reset
how to read this tab
guitar tuner
Autoscroll
slow
fast
+/-
esc
set tempo
stop
Help us to improve Ultimate-Guitar.com Take our survey!
×
Author

I want this tab!

Sorry, this artist has told us we can not show this tab.

Help us change their mind!
Tell us why you want to learn this song or why it is important to you, and
we will share these directly with the artist or their representative.
Your words and your story can make a difference. It works!

To understand more on what is happening, please read this article:
Why Songs on Ultimate Guitar Are Licensed (time to read: 1 minute)

comments
print report bad tab
4 comments total. Showing first comments.
0 reply
XKiRkHaMmEtTx 10 Feb 27, 2004 12:00 AM

the solo on ur tab is wrong try this and see wat u think.
e--4-6-7-9-7-6-4-4-6-2-7-9-11--19-18----19-18----19-18----19-18-------
B-----------------------------------19-------19-------19-------19-----
G-------------------------------------20-------20-------20-------20---
D---------------------------------------------------------------------
A --------------------------------------------------------------------
E---------------------------------------------------------------------
using a digitech whammy pedal play this part with 1 octave
e---------------------------------------------------------------------
B---------------------------------------------------------------------
G---------------------------------------------------------------------
D---------------------------------------------------------------------
A---------------------------------------------------------------------
E--3-5-7-8-10-12-14-16-18-19-18-19-18-19-18--------------------------

+1 reply
styphon 50 Feb 29, 2008 12:32 PM

There is also vibrato on the solo whammy notes.

0 reply
Strausser33 10 Aug 16, 2008 11:52 AM

XKiRkHaMmEtTx:
your way off bro sorry

styphon:
is right he vibratos alot of the notes dat are longer and eased into the whammy.......

guest
You may want to rate the tab now too:
select rating
Wanna post a correction for this tab? Suggest correction