Oops, an error
Loading. Please wait.

Like A Stone Bass Tab

version 2
version 2

Whole song

11,560 views 1 this week
4 commentsread comments
1 2 3 4 5
x 8
add to favorites
launch autoscroll
font size
0
reset
guitar tuner
Autoscroll
slow
fast
+/-
esc
set tempo
stop
Help us to improve Ultimate-Guitar.com Take our survey!
×

I want this tab!

Sorry, this artist has told us we can not show this tab.

Help us change their mind!
Tell us why you want to learn this song or why it is important to you, and
we will share these directly with the artist or their representative.
Your words and your story can make a difference. It works!

To understand more on what is happening, please read this article:
Why Songs on Ultimate Guitar Are Licensed (time to read: 1 minute)

comments
print report bad tab
4 comments total. Showing first comments.
+1 reply
rideronthestorm 10 Jan 28, 2003 12:00 AM

Interlude- Rest for 8 measures before playing-
G-|------------------------------------------------------------------|
D-|------------------------------------------------------------------|
A-|-6---6------5---5-6----5-6----6-3----3-5-5-5-5-5-5-5-5------------|
D-|------8----8------------------------------------------------------|

0 reply
rideronthestorm 10 Jan 28, 2003 12:00 AM

it works either way, but this is my preference

Interlude- Rest for 8 measures before playing-
G-|------------------------------------------------------------------|
D-|------------------------------------------------------------------|
A-|-6---6------5---5-6----5-6----6-3----3-5-5-5-5-5-5-5-5------------|
D-|------8----8------------------------------------------------------|

0 reply
rideronthestorm 10 Jan 28, 2003 12:00 AM

alright dammit... they sure dont make this easy, using a little box like this, but ill try this again...

Interlude- Rest for 8 measures before playing-
G-|--------------------------------------------------------|
D-|--------------------------------------------------------|
A-|-6--6----5-----5-6----5-6----6-3----3-5-5-5-5-5-5-5-5---|
D-|------8----8--------------------------------------------|

guest
You may want to rate the tab now too:
select rating
Wanna post a correction for this tab? Suggest correction