Oops, an error
Loading. Please wait.
7,069 views 1 this week
5 commentsread comments
1 2 3 4 5
x 17
add to favorites
launch autoscroll
font size
0
reset
how to read this tab
guitar tuner
Autoscroll
slow
fast
+/-
esc
set tempo
stop
Help us to improve Ultimate-Guitar.com Take our survey!
×

I want this tab!

Sorry, this artist has told us we can not show this tab.

Help us change their mind!
Tell us why you want to learn this song or why it is important to you, and
we will share these directly with the artist or their representative.
Your words and your story can make a difference. It works!

To understand more on what is happening, please read this article:
Why Songs on Ultimate Guitar Are Licensed (time to read: 1 minute)

comments
print report bad tab
5 comments total. Showing first comments.
0 reply
purestud84 10 Dec 04, 2002 12:00 AM

by:josh
band:Audioslave
album:Audioslave
song:Like A Stone
tuning:E A D G B E
date:november 22, 2002

by the way on the tuning tom morello said in guitar world
that he plays this in standard but tuned either one step up
or 1 half step up i guess he couldnt remember at the moment
since i wasnt sure either i just did this in standard

key:
~ = hold
b = bend
()= play only last time
||= on the last time play these not with light distortion and palm muted

intro and verse : tremolo or pan effect
E---------------------------------
B---------------------------------
G-3-----5--------------8-----7----
D----5-----3-----7----------------
A-------------5-----6-----5-------
E---------------------------------

solo : light distortion with echo effect
E---------------------------------------------------------
B-------------------------------------------------18~-20~-
G-12~--14~--15~-14~--10-12--12~--14~--15~-15~-17~---------
D---------------------------------------------------------
A---------------------------------------------------------
E---------------------------------------------------------

4x
E-22-22-22-20-20-20------------------
B-------------------22-22-22-20-20-20
G------------------------------------
D------------------------------------
A------------------------------------
E------------------------------------

0 reply
Sammyg721 10 Feb 13, 2003 12:00 AM

your tab sucks

0 reply
godsmackfan1 10 Apr 24, 2003 12:00 AM

the effect pedal on the solo is a whammy pedal...i've never really seen one but an interview with the guitarist said thats what it is

guest
You may want to rate the tab now too:
select rating
Wanna post a correction for this tab? Suggest correction