Oops, an error
Loading. Please wait.

Man Or Animal Bass Tab

version 1
version 1

Whole song

Interactive

2,658 views 3 this week
2 commentsread comments
1 2 3 4 5
x 7
add to favorites
launch autoscroll
font size
0
reset
guitar tuner
Autoscroll
slow
fast
+/-
esc
set tempo
stop
Help us to improve Ultimate-Guitar.com Take our survey!
×
Author
AUDIOSLAVE- MAN OR ANIMAL

Album- Out Of Exile
While the guitar is doin its thing you do this
Intro 1
----------------------------|
----------------------------|
----------------------------|
-22222222-------------------| just do that a bunch of times until

Intro 2

-------------------------------|
-------------------------------|
--0------0------0-------0--2---|
----2-02---2-02----2-02---2----|

Verse part 1
------------------------------|
------------------------------|
------------------------------|
--22--22--22--22--------------| Rpt 1x

then go

Verse part 2
-----------------------------|
-----------------------------|
-22-22-22--------------------| Rpt that a few songs.. Listen to the song to ace
-----------------------------|it

then Chorus

------------------------|
------------------------|
--5--7--4-4-2-----------| Rpt 2x after you've done it once
------------------------|

then go back to Verse Part one to Part 2 then repeat part 1 and 2

Chorus

Then during the little bridge while the guitar is bein all trippy do intro 2 until it 
then at the end the choruses colide so its like

-------------------------|
-------------------------|
--5--7--0-----0----------|
----------2-02--2-02-----| rpt 3 times then just do Intro 2 to end
Suggest correction
comments
print report bad tab
2 comments total.
-1 reply
saipop 231 Mar 14, 2011 10:32 AM

Not a very good tab: it's better to use the first two strings for this song while in verse and only use the lower ones in chorus and near the ending.

Also, you forgot the bass riff in the second part of the verse ("I could be rich or poor, I don't need any more").

It goes like this:
G 5-4-2-4--5-4-2-4-2
D -------------------4-2-4

0 reply
AtheistBuckeye 10 Jul 27, 2011 01:48 AM

The intro riff is played on the 14th fret on the E-string, not to mention the fact that Tim uses a wah pedal somewhere in the song after the guitar solo.

guest
You may want to rate the tab now too:
select rating
Wanna post a correction for this tab? Suggest correction