Oops, an error
Loading. Please wait.

Man Or Animal Tab

version 1
version 1

Intro

Whole song

Interactive

6,919 views 9 this week
6 commentsread comments
1 2 3 4 5
worth learning
x 7
add to favorites
launch autoscroll
font size
0
reset
how to read this tab
guitar tuner
Tab Pro tools
  • play this tab
  • loop segment
  • change instrument
  • show fretboard
  • metronome
Autoscroll
slow
fast
+/-
esc
set tempo
stop
Contributor
Man Or Animal

My first tab, enjoy it!!!!

Standard Tuning


Intro:

e[]-----------------------------------------|
B[]-----------------------------------------|
G[]-----------------------------------------|          4 times
D[]-----------------------------------------|
A[]-------------------------------------2---|
E[]--5-2--0-2--5-2--0-2--5-2--0-2--5-2------|


Verse:

F#            F#
You give me a heart attack
F#                F#
You look like the summertime
F#             F#
You call me an artifact
    F#                   F#
But I'll save that for another time
B
I could be rich or poor
I don't need anymore

F#
Keep your love inside the kitchen
You can feed me anything
Leave the feathers on the chicken
Peel the leather from your skin
B
I can be young or old
Sweet or sad, hot or cold


Chorus:

D      E       A       E       B
Man or animal, I don't care at all
D        E        A     E        B
Find the antidote underneath the dose
D      E       A E B
Man or animal, obidient-
out of control

Intro:


Verse:

F#
I will love you more than money
I will breathe you in the smoke
I will drink you in my honey
Sweet and golden down my throat
B
When you're right, when you're wrong
Head is near, eyes are gone

F#
You can drown my appetite
I will sip your tears at night
You can tie me to a chair
Skin and bones, I don't care
B
I could be rich or poor
I don't need anymore


Chorus:

D      E       A       E       B
Man or animal, I don't care at all
D        E        A     E        B
Find the antidote underneath the dose
D      E       A E B
Man or animal, obidient-
out of control


Intro: 2 times

Solo during the intro. 4 times


Chorus 2:

e[]------------------------------------------|
B[]------------------------------------------|
G[]--7-7-------------------------------------|
D[]--7-7--2-2--------------------------------|   4 times
A[]--5-5--2-2--------------------------------|
E[]-------0-0----5-2--0-2--5-2--0-2----------|

Man or animal, I don't care at all
Find the antidote underneath the dose
Man or animal, obedient-
out of control
Out of controooooolllll


Outro:


e[]-----------------------------------------|
B[]-----------------------------------------|
G[]-----------------------------------------|          6 times
D[]-----------------------------------------|
A[]-------------------------------------2---|
E[]--5-2--0-2--5-2--0-2--5-2--0-2--5-2------|

You give me a heart attack
I will give you more than that
You give me a heart attack
I will give you more than that

e[]------------|
B[]----4-------|
G[]----4-------|
D[]----4-------|
A[]----2-------|
E[]------------|
comments
print report bad tab
6 comments total. Showing first comments.
0 reply
spunky5150 wrote on June 29 2005, 12:00 am

This tab is almost UTTER nonsense!!!
It's clearly drop D tuning?!!?
Listen for God's sake!!

0 reply
JudoJoe wrote on November 27 2005, 09:12 am

What about the SOLO!?

0 reply
lazlow325i wrote on June 23 2006, 08:36 am

First riff can use an open A string instead of the fifth fret of the e string. It makes it a lot easier.

I want to post or [tab]
guest
You may want to rate the tab now too:
select rating
Please do not post tabs as comments. Select "correction" instead!