Oops, an error
Loading. Please wait.

Man Or Animal Tab

version 3
version 3

Whole song

Interactive

1,959 views 9 this week
no commentswrite comment
1 2 3 4 5
please rate
add to favorites
launch autoscroll
font size
0
reset
how to read this tab
guitar tuner
Tab Pro tools
  • play this tab
  • loop segment
  • change instrument
  • show fretboard
  • metronome
×
Best way to learn
"Man Or Animal"
Autoscroll
slow
fast
+/-
esc
set tempo
stop
Contributor
Difficulty
intermediate
Man or Animal
Tunning
E
B
G
D
A
B

Intro
Scratching of the pick and the B string (aka low E)

Riff A (which uses two guitars eventually)
E---------------------------|
B---------------------------|
G---------------------------|
D---------------------------|
A-0------0------0------0--2-|
B--7-5-7--7-5-7--7-5-7--7-5-|

Verse
E-------------------------------------------------|
B-------------------------------------------------|
G-------------------------------------------------|
D-------------------------------------------------|
A-4-4-x-x-x-x-4-4-x-x-x---4-4-x-x-x-x-4-4-x-x-x---|
B-7-7-x-x-x-x-7-7-x-x-x-0-7-7-x-x-x-x-7-7-x-x-x-0-|

Riff B
E----------------------------------------|
B----------------------------------------|
G----------------------------------------|
D----------------------------------------|
A----------------------------------------|
B-0--0-0--0-0-0-0--0-0--0-0--0-0-0--0--0-|

Riff C (chorus part)
E-----------------------|
B-----------------------|
G-----------------------|
D-----------------------|
A-----------------------|
B-3----5----2--x-2--x-0-|

Chorus Riff
E-----------------------------------------------------------------|
B-----------------------------------------------------------------|
G-----------------------------------------------------------------|
D-----------------------------------------------------------------|
A----------0------0---------------0------0------------------------|
B-3----5----7-5-7--7-5-7-3----5----7-5-7--7-5-7-3-333333-5-555555-|

E------------------------------|
B------------------------------|
G------------------------------|
D-----------------------0------|
A-0------0------0-------0----2-|
B--7-5-7--7-5-7--7-5-7----0--5-|

Interlude (With a DigiTech Whammy Pedal)[Riff A is played under it]
E------------------------------------------------------------------------|
B------------------------------------------------------------------------|
G------------------------------------------------------------------------|
D-4--4--4--4--4--4--4--4--4--4--4--4--4--4--4--4--4--4--4--4--4--4--4--4-|
A------------------------------------------------------------------------|
B------------------------------------------------------------------------|
Note i dont know exactly how its played w/the pedal
bt if have 1 u can figure it out

Solo (again w/pedal)[set two octaves above] gtr 3 & 4
E--------------2---------------------------2--------------|
B----------------5-2-------------------------5-2----------|
G--------------------5-4-2-----------------------5-4-2-4--|v
D-0---4---0---4------------2-0---4---0---4----------------|
A-0-------0------------------0-------0--------------------|
B-0-------0------------------0-------0--------------------|

Gtr 3
E-----------------------------------------|
B-----------------------------------------|
G-5---5----------------5--7---------------|
D---------7---(7)--7---------5---7--------|(7)
A-----------------------------------------|
B-----------------------------------------|

Gtr 4
E----------------------------------|
B-4---5---4------------2--3--2-----|
G------------------2-------------1-|
D----------------------------------|
A----------------------------------|
B----------------------------------|

Gtr 3
E-------------------------------------------------|
B--------------------7----------------------------|
G-5---7-------5----------5-------5---7---7--(7)---|
D----------------------------7------------------7-|
A-------------------------------------------------|
B-------------------------------------------------|

Gtr 4
E-------------------------------------------------|
B--------------------------------4---5---4--------|
G-4---4-(4)--4-(4)---4---4---4------------------4-|
D-------------------------------------------------|
A-------------------------------------------------|
B-------------------------------------------------|

Gtr 3
E-------------------------------------------------|
B-------------------------------------------------|
G---------0w---(0)---(0)-----------0w---(0)-------|(0)
D-3---5--------------------3---5------------------|
A-3---5--------------------3---5------------------|
B-------------------------------------------------|

Note alot may seem confusing (besides the tunning)
like in the solo but if u have the pedals and what not
u should be able to figure it out
w-whammy
v-vibrato
x-muted string
comments
We did not receive enough feedback on this tab! Please rate:
print report bad tab
1 2 3 4 5
I want to post or [tab]
guest
You may want to rate the tab now too:
select rating
Please do not post tabs as comments. Select "correction" instead!