Oops, an error
Loading. Please wait.

Moth Tab

version 1
version 1

Intro

Whole song

Interactive

3,162 views 1 this week
4 commentsread comments
1 2 3 4 5
excellent!
x 4
add to favorites
launch autoscroll
font size
0
reset
how to read this tab
guitar tuner
Autoscroll
slow
fast
+/-
esc
set tempo
stop
Help us to improve Ultimate-Guitar.com Take our survey!
×
Author
Difficulty
Tuning
novice
D A D G B E
Artist: Audioslave
Album: Revelations
Release Date: 9/05/06
Tuning: Drop-D

Yeah well the Vh1.com leak was today and for those who didnt listen i can tell you the 
cd is amazing. I got this far on moth... didnt have much time... but I'll do what I can;
P.S. I had to break it into a few parts so it wouldnt just drag across the screen... 
it continually though.

e|---------------------------------------------------------------|
b|---------------------------------------------------------------|
g|--2---------2---------3---------3---------0---------0----------|
d|---------------------------------------------------------------|
a|---------------------------------------------------------------|
D|----0-3-5-7---0-3-5-7---0-3-5-7---0-3-5-7---0-3-5-3---0-3-5-3--|

e|---------------------------------------------------------------|
b|---------------------------------------------------------------|
g|--2---------2---------2---------2---------3---------3----------|
d|---------------------------------------------------------------|
a|---------------------------------------------------------------|
D|----0-3-5-7---0-3-5-7---0-3-5-7---0-3-5-7---0-3-5-7---0-3-5-7--|

e|-------------------------------------||
b|-------------------------------------||
g|--5---------5---------7---------7~---||
d|-------------------------------------||
a|-------------------------------------||
D|----0-3-5-7---0-3-5-7---0-3-5-7------||

Simple as pie... problem is it's kinda hard to hear the rest... and considering its 2am 
wake my girlfriend if I turn it up any louder... I'll try to finish it when the whole 
comes out...

Written by; Devon Macdonald
Suggest correction
comments
print report bad tab
4 comments total. Showing first comments.
0 reply
angryunicycle 10 wrote on September 3 2006, 01:27 am

Hey man nice tabbing on the intro. Except I think the D string is to be played like this:
e|-----------------------------------------|
b|-----------------------------------------|
g|--------0----------------0---------------|
d|-----------------------------------------|
a|-----------------------------------------|
D|-----------0-3-5-3----------0-3-5-3------|

0 reply
Txhxc 16 wrote on September 4 2006, 01:23 pm

wow i missed that... nice correction, edited

0 reply
blue_nose9 41 wrote on September 5 2006, 08:12 am

great tab hope u will be able to tab out the rest of the song just as good

guest
You may want to rate the tab now too:
select rating
Wanna post a correction for this tab? Suggest correction