Oops, an error
Loading. Please wait.

Nothing Left To Say But Goodbye Tab

version 2
version 2

Whole song

Interactive

9,461 views 12 this week
4 commentsread comments
1 2 3 4 5
excellent!
x 7
add to favorites
launch autoscroll
font size
0
reset
how to read this tab
guitar tuner
Tab Pro tools
  • play this tab
  • loop segment
  • change instrument
  • show fretboard
  • metronome
×
Best way to learn
"Nothing Left To Say But Goodbye"
Autoscroll
slow
fast
+/-
esc
set tempo
stop
Contributor
Difficulty
novice
=====================================================================================
Title: *Nothing Left To Say But Goodbye*
Artist: Audioslave
Album: Revalations
=====================================================================================
Written by Chris Cornell; Audioslave
Produced by Sony BMG Entertainment and 'EPIC'
=====================================================================================
Label: Sony
Year: 2006
=====================================================================================
Track: -11-
=====================================================================================
Transcripted by Asa Gaston
=====================================================================================
Tuning: Drop-D ( D-A-D-G-B-E )
=====================================================================================

-------------------------------------------------------------------------------------
Guitar 1 -{ D-A-D-G-B-E }- Lead - Tom Morello
-------------------------------------------------------------------------------------
Guitar 2 -{ D-A-D-G-B-E }- Fills - Percussion
-------------------------------------------------------------------------------------

=====================================================================================
INTRO
=====================================================================================
0:00-

      D7*        F#m/5-*       Dm/5-*          Bm/5-*  
 Gtr. 1 (clean)
E|-----------------------------------------------7--7h8-7---|\
B|---------3-----------7------------3------------6----------|\\ - - - -
G|------5----5------5-----5------1-----1-----/7-------------|\\\ Play  \
D|---4-----------7------------3-----------------------------|///  2x   /
A|----------------------------------------------------------|// - - - -
D|----------------------------------------------------------|/

=====================================================================================
VERSE 1/VERSE 2
=====================================================================================
0:12-   0:56-

      D7*        F#m/5-*       Dm/5-*          Bm/5-*  
E|--------------------------:---------------:----(7)-7h8-7---|\
B|---------3-----------7----:-------3-------:-----6-----------|\\ - - - -
G|------5----5------5-----5-:----1-----1----:-/7-------------|\\\ Play  \
D|---4-----------7----------:-3-------------:----------------|///  4x   /
A|--------------------------:Play 2x on strt:(Gtr.2 on 2nd---|// - - - -
D|--------------------------:  Verse 2 only :------time only)|/
 |Gtr.2 (clean) -Last 2 repeats only**
E|-----------------------------------------------7--7h8-7---|\
B|-----------------------------------------------6----------|\\ - - - -
G|--11----------10------------------7--------/7-------------|\\\ Play  \
D|-----10-12-10----9--12--9------6--------------------------|///  2x   /
A|---------------------------8------------------------------|// - - - -
D|----------------------------------------------------------|/

=====================================================================================
CHORUS
=====================================================================================
0:35-    1:20-    2:25-

     Bb*               F*      A*       Bb*               Dm*
E|-------------------|-----------------|-----------------|-5---5-5-5-5-5-5-|
B|---3---3---3---3---|-1---1---5---5---|-3---3---3---3---|-6---6-6-6-6-6-6-|
G|---3-x-3-x-3-x-3-x-|-2-x-2-x-6-x-6-x-|-3-x-3-x-3-x-3-x-|-7---7-7-7-7-7-7-|
D|---3-x-3-x-3-x-3-x-|-3-x-3-x-7-x-7-x-|-3-x-3-x-3-x-3-x-|-7---7-7-7-7-7-7-|
A|---1-1-1-1-1-1-1-1-|-3-3-3-3-7-7-7-7-|-1-1-1-1-1-1-1-1-|-5---5-5-5-5-5-5-|
D|-------------------|-----------------|-----------------|-----------------|


     G*               C#*                F*        A*
E|-------------------|-----------------|-----------------|
B|---3-3-3-3-3-3-3-3-|-6-6-6-6-6-6-6-6-|-1-1-------5---5-|
G|---4-4-4-4-4-4-4-4-|-6-6-6-6-6-6-6-6-|-2-2-------6---6-|
D|---5-5-5-5-5-5-5-5-|-6-6-6-6-6-6-6-6-|-3-3-------7---7-|
A|---5-5-5-5-5-5-5-5-|-4-4-4-4-4-4-4-4-|-3-3--0-0--7---7-|
D|-------------------|-----------------|------2-3--------|
 |
E|-------------------|
B|-------------------|
G|-------4-----------|
D|-----3-------------|
A|---2---------------|
D|-------------------|

================================================================================================
BRIDGE
================================================================================================
1:41- 
                           
     G*                       F*       Dm*       Bb*      Dm*      D5*        
E|| -------------------------:-----------1-1-1-1- ||-----------------------------------------|
B||.---3-----3-----3-----3---:--1-1-1-1--3-3-3-3-.||--3-3-3-3--6-6-6-6-------------Play 4x---|
G|| ---4-----4-----4-----4---:--2-2-2-2--2-2-2-2- ||--3-3-3-3--7-7-7-7--7-7-7-7--{-6-6-6-6-}-|
D|| ---5--x--5--x--5--x--5---:--3-3-3-3--0-0-0-0- ||--3-3-3-3--7-7-7-7--7-7-7-7--{-7-7-7-7-}-|
A||.---5--x--5--x--5--x--5---:--3-3-3-3----------.||--1-1-1-1--5-5-5-5--5-5-5-5--{-7-7-7-7-}-|
D|| -------------------------:------------------- ||-----------------------------{-5-5-5-5-}-|
                            \ 1.               : 2.                                      /
                             \ - - - - - - - - : - - - - - - - - - - - - - - - - - - - -/
================================================================================================
INTERLUDE
================================================================================================
2:00-

      D7*        F#m/5-*       Dm/5-*          Bm/5-*  
E|-----------------------------------------------7--7h8-7---|\
B|---------3-----------7------------3------------6----------|\\ - - - -
G|------5----5------5-----5------1-----1-----/7-------------|\\\ Play  \ Palm-muted**
D|---4-----------7------------3-----------------------------|///  2x   / 1st 2 times
A|----------------------------------------------------------|// - - - -
D|----------------------------------------------------------|/

=====================================================================================
OUTRO
=====================================================================================
2:45-

{{{{{{ON IT'S WAY =]

=====================================================================================

NOTE: Very easy, but yet, very catchy. That's where true song-writing falls in.
      This song shows how he was in constant stress and was in over his head
      and how he was saved and made new and walks a straight road now.
      Shinning a very bright light to the regard of christianity.
      Once again, very easy and very fun to play. Well... ...ENJOY!!!

                                                        -Asa





comments
print report bad tab
4 comments total. Showing first comments.
+2 reply
JL Sevenfold wrote on July 26 2008, 05:01 pm

I give it 5 stars because this is the outro and techinically it is now in your tab:

D:-----------------------------------/7--5--4---2---
A:---------------------/6--5--4--2-0----------------
D:-0--2-3/8--7--5--7-8------------------------------

The last two notes are picked multiple times.

+1 reply
JL Sevenfold wrote on July 26 2008, 05:02 pm

Oops the last note is a 3.

0 reply
jazzycab wrote on October 24 2010, 08:03 pm

Why is this in drop D?

I want to post or [tab]
guest
You may want to rate the tab now too:
select rating
Please do not post tabs as comments. Select "correction" instead!