Oops, an error
Loading. Please wait.

Number 1 Zero Tab

version 2
version 2

Whole song

Interactive

5,817 views 18 this week
5 commentsread comments
1 2 3 4 5
accurate
x 8
add to favorites
launch autoscroll
font size
0
reset
how to read this tab
guitar tuner
Autoscroll
slow
fast
+/-
esc
set tempo
stop
Help us to improve Ultimate-Guitar.com Take our survey!
×
Author
#1 Zero- Audioslave
Tuning: E A D G B e (Standard)
Tabbed by: Benyiri, ese Don

Intro- Part 1

e|-----------------------------------|
B|-/8--7----8--10---10—-12\----------|
G|-/9--7----9--9----7---9\-----------|
D|-----------------------------------|
A|-----------------------------------|
E|-----------------------------------|

 Intro- Part 2 (Whammy? Effect)

e|----------------------------------------------------------------|
B|----------------------------------------------------------------|
G|----------------------------------------------------------------|
D|--9--12--9--12--9--12--9----------------------------------------|
A|--------------------------10----12--10--9------12--10--9--------|
E|-------------------------------------------10-------------10----|

e|-----------------------------------------------------------|
B|-----------------------------------------------------------|
G|-----------------------------------------------------------|
D|--9--12--9--12--9--12--9-------------------------------9~--|
A|--------------------------10----12--10--9------12--10------|
E|-------------------------------------------10--------------|

Verse 1: (Low Tremolo Effect)
1.
   (Em)                Am
e|--0-------0----------0--------0------|
B|--0----0------0------1----1-----1----|
G|--x----x---------2---2----2-------0--|
D|--2---(2)------------2----2----------|
A|--2---(2)----------------------------|
E|-------------------------------------|
2.
   (Em)                Am
e|--0-------0----------0--------0------------------|
B|--0----0------0------1----1-----1---0-3--1-------|
G|--x----x---------2---2----2-------0--------0-2---|
D|--2---(2)------------2----2----------------------|
A|--2---(2)----------------------------------------|
E|-------------------------------------------------|
3.
   (Em)                    Am
e|--0----12----0-----------0---------0------------------|
B|--0----12-------0--------1----1--1---1---0-3--1-------|
G|--x----------------2--0--2----2--2-----0--------0-2---|
D|--2----------------------2----2—(2)-------------------|
A|--2---------------------------------------------------|
E|------------------------------------------------------|

Chorus 1:
    C     A            C     B7
e|--0-----0--------5---0-----------------2---------------------|
B|--1-----2---1/5------1--------------0------------------------|
G|--0-----2------------0-----------2---------------------------|
D|--2-----2------------2--------1------------------------------|
A|--3-----0------------3-----2---------------------------------|
E|-------------------------------------------------------------|

Then go back to Intro(Part 2)...

Verse 2: The same as verse 1, just two times, the first (1.) and the third (3.) part.

Chorus 2:
    C     A            C     A           C
e|--0-----0--------5---0-----0--------5--------------0---------------|
B|--1-----2---1/5------1-----2---1/5--------------1-----1------------|
G|--0-----2------------0-----2-----------------0-----------0---------|
D|--2-----2------------2-----2--------------2-----------------2------|
A|--3-----0------------3-----0-----------3---------------------------|
E|-------------------------------------------------------------------|
    B7
e|--------------2-|
B|-----------0----|
G|--------2-------|
D|-----1----------|
A|--2-------------|
E|----------------|

Bridge: (Heavy Distortion)  (x3) After that…
e|------------------------------|----------------------------------|
B|------------------------------|----------------------------------|
G|-----------------7-9-9-9-9-9--|--------------------------2-0-----|(All x2)
D|--5-4-2-2-2-2-2--7-9-9-9-9-9--|----------------------2-0-----2---|
A|--5-4-2-2-2-2-2--5-7-7-7-7-7--|------------------2-0-------------|
E|--3-2-0-0-0-0-0---------------|--3-5-5-3-5-5-3-5-----------------|

This is when Chris start singing
                           (x2)
e|------------------------------|-----------------------------------------|
B|------------------------------|-----------------------------------------|
G|-----------------7-9-9-9-9-9--|-----------------------------------------|
D|--5-4-2-2-2-2-2--7-9-9-9-9-9--|-----------------------------------------|
A|--5-4-2-2-2-2-2--5-7-7-7-7-7--|-----------------------------------------|
E|--3-2-0-0-0-0-0---------------|--3-5-5-5-5-5--3-5-5-5-5-5--3-5-5-5-5-5--|

e|------------------|
B|------------------|
G|----------2-0-----| (All x2)
D|------2-0-----2---|
A|--2-0-------------|
E|------------------|

Solo (Maybe I’ll send it later apart; cause is a little long...)

Chorus 3:
    C5    A5           C5    A5          C
e|-----------------5------------------5--------------0---------------|
B|------------1/5----------------1/5--------------1-----1------------|
G|--5-----2------------5-----2-----------------0-----------0---------|
D|--5-----2------------5-----2--------------2-----------------2------|
A|--3-----0------------3-----0-----------3-----------------------3---|
E|-------------------------------------------------------------------|
    B7
e|--------------2-|
B|-----------0----|
G|--------2-------|
D|-----1----------|
A|--2-------------|
E|----------------|

Intro- Part 2
e|----------------------------------------------------------------|
B|----------------------------------------------------------------|
G|----------------------------------------------------------------|
D|--9--12--9--12--9--12--9----------------------------------------|
A|--------------------------10----12--10--9------12--10--9--------|
E|-------------------------------------------10-------------10----|

e|-----------------------------------------------------------|
B|-----------------------------------------------------------|
G|-----------------------------------------------------------|
D|--9--12--9--12--9--12--9-------------------------------9~--|
A|--------------------------10----12--10--9------12--10------|
E|-------------------------------------------10--------------|

Then...the end...
e|-------------------------------------|
B|-------------------------------------|
G|-------------------------------------|
D|-------------------------------9~~---|
A|--10—9~---9----------9--10--12-------|
E|-------------11—12~------------------|

Enjoy it.
Suggest correction
What's this?
You can suggest a correction to this tab. Community and Mods will review your correction and vote to approve or reject it.
comments
print report bad tab
5 comments total. Showing first comments.
0 reply
BirdRATM 168 wrote on May 20 2007, 01:25 am

For the whammy part, set the whammy to one octave up and depress the treadle for each note. Sort of like the solo for 'Like a stone.'

Should have put the solo anyway. Either way, good job.

0 reply
chris0186 123 wrote on October 9 2010, 12:32 am

I think this song is tuned in drop D, but played in the key of E Minor.

0 reply
inflatablepie 40 wrote on January 30 2014, 09:19 pm

here's what the bridge section should sound like.

Bridge: (Heavy Distortion) (x3) After that?
e|------------------------------|----------------------------------|
B|------------------------------|----------------------------------|
G|-----------------7-9-9-9-9-9--|----------------------------------|(All x2)
D|--5-4-2-2-2-2-2--7-9-9-9-9-9--|--------------------------4-7-----|
A|--5-4-2-2-2-2-2--5-7-7-7-7-7--|----------------------5-7-----5---|
E|--3-2-0-0-0-0-0---------------|--3-5-5-3-5-5-3-5-6-7-------------|

guest
You may want to rate the tab now too:
select rating
Please do not post tabs as comments. Select "correction" instead!