Oops, an error
Loading. Please wait.

One And The Same Bass Tab

version 2
version 2

Whole song

Interactive

4,660 views 18 this week
2 commentsread comments
1 2 3 4 5
accurate
x 8
add to favorites
launch autoscroll
font size
0
reset
guitar tuner
Tab Pro tools
  • play this tab
  • loop segment
  • change instrument
  • show fretboard
  • metronome
Autoscroll
slow
fast
+/-
esc
set tempo
stop
Contributor
Difficulty
intermediate
if you have trouble with this tab you can watch me play it copy and paste the link below

http://www.youtube.com/watch?v=8usJVjCubeM


intro - no bass


Verse
                      fill
G-----------7-------------.---------------------------------------|
D-------7/9-----9-7-9-----.---9-7---7-----------------------------|
A-------------------------.-------9------9-7-9------7p5-----------|x4
E---7-7-------------------.-----------------------------7p5-------|

Verse 2
                      fill
G-----------------------  .------------------------------------|
D-----------------------  .----------------------------7-------|
A--------14-12----------x3.-----------------7-7----7h9---------|x4
E---7/----------7*7-5---  .---7-7----10-10---------------------|
 do this x3 before fill

on the 4th time the fill is      G----------------------------------|
                                 D----------------------------------|
                                 A---9-9----7-7---------------------|
                                 E---------------10-10----7-5-------|


Chorus

G-----------------------------------------------------------------------|
D-----------------------------------------------------------------------|
A--------------------------9-9-9---7--7-7-7----5-5-5----9--9-9-9--------|
E---7-7-7----10--10-10-10-----------------------------------------------|

fill

G------------------------------------|
D------------------------------------|
A--5-5-5----7-7-7-7-7p5--------------|x2
E--------7--------------7------------|


Verse 3

                        fill
G-----------7-------------.---------------------------------------|
D-------7/9-----9-7-9-----.---9-7---7-----------------------------|
A-------------------------.-------9------9-7-9------7p5-----------|x2
E---7-7-------------------.-----------------------------7p5-------|


Verse 4

G-----------------------  .------------------------------------|
D-----------------------  .----------------------------7-------|
A--------14-12----------x3.-----------------7-7----7h9---------|x4
E---7/----------7*7-5---  .---7-7----10-10---------------------|
 do this x3 before fill


Chorus

G-----------------------------------------------------------------------|
D-----------------------------------------------------------------------|
A--------------------------9-9-9---7--7-7-7----5-5-5----9--9-9-9--------|
E---7-7-7----10--10-10-10-----------------------------------------------|

fill

G------------------------------------|
D------------------------------------|
A--5-5-5----7-7-7-7-7p5--------------|x2
E--------7--------------7------------|

Solo

G---------------------------------------------------------------|
D---------------------------------------------------------------|
A---------------------------9-9-9--7-7-5-7-----5-5-5---9--9-9---|
E----7-7-7----10-10-7-10----------------------------------------|


fill

G------------------------------------|
D------------------------------------|
A--5-5-5----7-7-7-7-7p5--------------|x2
E--------7--------------7------------|


Solo pt2
                        fill
G-----------7-------------.---------------------------------------|
D-------7/9-----9-7-9-----.---9-7---7-----------------------------|
A-------------------------.-------9------9-7-9------7p5-----------|x3
E---7-7-------------------.-----------------------------7p5-------|


G-----------7------7/11-9---.-------------------------------------|
D-------7/9----9------------.--9-7---7----------------------------|
A---------------------------.------9-----9-7-9------7p5-----------|
E---7-7---------------------.---------------------------7p5-------|


pause no bass


Chorus     come in with a slide

G-----------------------------------------------------------------------|
D-----------------------------------------------------------------------|
A-------------------------------9-9-9---7--7-7-7----5-5-5----9--9-9-9---|x2
E--12/5-----7-7-7----10--10-10-10---------------------------------------|


Outro

                         fill
G-----------7-------------.----------------------------------------------|
D-------7/9-----9-7-9-----.---9-7---7------------------------------------|
A-------------------------.-------9------9-7-9------7p5------------------|x4
E---7-7-------------------.-----------------------------7p5-----7(7)/19--|
comments
print report bad tab
2 comments total.
+1 reply
Ben Downes wrote on May 18 2007, 12:03 am

looks and sounds pretty good to me man,
nice work, 5 stars

-1 reply
J-E-N-O-V-A wrote on October 6 2009, 10:44 am

This is more correct.


fill
G-----------7-------------.---------------------------------------|
D-------7/9-----9---9-----.---9-7---7-----------------------------|
A-----------------0-------.-------9------9-7-9------7p5--7p5------|x4
E---7-7-------------------.-----------------------------------7p5-|

I want to post or [tab]
guest
You may want to rate the tab now too:
select rating
Please do not post tabs as comments. Select "correction" instead!