Oops, an error
Loading. Please wait.

One And The Same Bass Tab

version 3
version 3

Whole song

Interactive

605 views 1 this week
1 commentread comment
1 2 3 4 5
1 last vote to show rating
add to favorites
launch autoscroll
font size
0
reset
guitar tuner
Autoscroll
slow
fast
+/-
esc
set tempo
stop
Help us to improve Ultimate-Guitar.com Take our survey!
×
Author
#----------------------------------PLEASE NOTE---------------------------------#
#This file is the author's own work and represents their interpretation of the #
#song. You may only use this file for private study, scholarship, or research. #
#------------------------------------------------------------------------------#

ONE AND THE SAME (Bassline)




Transcribed by Gary Ramsey

 

 

Gtr I (E A D G) - 'Staff'


  Q=110
 4/4
  Gtr I
  E E E E +E  E E E   +E  S S E S S E S S S S S S   E E E E +E  E E E
|-----4-7-(7)-------|-----------------------------|-------7-(7)--------|
|-------------9-7-9-|-(9)-7---7-------------------|-----9-------9-7-9--|
|-2-2---------------|-------9---9-7-9-7-5-7-5-----|--------------------|
|-------------------|-------------------------7-5-|-7-7----------------|


  +E  S S E S S E S S S S S S
|-----------------------------|
|-(9)-7---7-------------------|
|-------9---9-7-9-7-5-7-5-----|
|-------------------------7-5-|


  E E E E +E  E E E   +E  S S E S S E S S S S S S
|-------7-(7)-------|-----------------------------|
|-----9-------9-7-9-|-(9)-7---7-------------------|
|-------------------|-------9---9-7-9-7-5-7-5-----|
|-7-7---------------|-------------------------7-5-|


  E E E E +E  E E E   +E  S S E S S E S S S S S S   Q  E E S S S S S S E
|-------7-(7)-------|-----------------------------|-----------------------|
|-----9-------9-7-9-|-(9)-7---7-------------------|----9------------------|
|-------------------|-------9---9-7-9-7-5-7-5-----|------0----------------|
|-7-7---------------|-------------------------7-5-|-7------7---5-7---7-5--|


  Q  E E S S S S S S E   Q  E E S S S S S S E   Q  Q  Q  Q
|----------------------|----------------------|--------------|
|----9-----------------|----9-----------------|--------------|
|------0---------------|------0---------------|----5--7--9---|
|-7------7---5-7---7-5-|-7------7---5-7---7-5-|-7------------|


  Q  E E S S S S S S E   Q  E E S S S S S S E   Q  E E S S S S S S E
|----------------------|----------------------|----------------------|
|----9-----------------|----9-----------------|----9-----------------|
|------0---------------|------0---------------|------0---------------|
|-7------7---5-7---7-5-|-7------7---5-7---7-5-|-7------7---5-7---7-5-|


  Q  Q  Q  Q    Q  E E S S S S S S E   Q  E E S S S S S S E
|-------------|----------------------|-----------------------|
|-------------|----9-----------------|----9------------------|
|----5--7--9--|------0---------------|------0----------------|
|-7-----------|-7------7---5-7---7-5-|-7------7---5-7---7-5--|


  Q  E E S S S S S S E   S S S S E S S E S S S S S S   E E E E +S  S E E E
|----------------------|-----------------------------|---------------------|
|----9-----------------|-4-4-4-4-2-2-2-0-0-0---------|-------0-(0)---0-0-0-|
|------0---------------|---------------------4-4-4-4-|-2-2-2---------------|
|-7------7---5-7---7-5-|-----------------------------|---------------------|


  E E E E +S  S E E E   E E E E +S  S E E E   E E E E E S S S S S S
|---------------------|---------------------|-----------------------|
|-4-4-4-2-(2)---2-2-2-|-0-0-0-4-(4)---4-4-4-|-----------------------|
|---------------------|---------------------|-5-5-5---7-7-5-7-5-----|
|---------------------|---------------------|-------7-----------7-5-|


  E E E E +S  S E E E   E E E E +S  S E E E   E E E E +S  S E E E
|---------------------|---------------------|---------------------|
|---------------------|-4-4-4-2-(2)---2-2-2-|-0-0-0-4-(4)---4-4-4-|
|-------5-(5)---5-5-5-|---------------------|---------------------|
|-7-7-7---------------|---------------------|---------------------|


  E E E E E S S S S S S   Q  E E S S S S S S E   Q  E E S S S S S S E
|-----------------------|----------------------|----------------------|
|-----------------------|----9-----------------|----9-----------------|
|-5-5-5---7-7-5-7-5-----|------0---------------|------0---------------|
|-------7-----------7-5-|-7------7---5-7---7-5-|-7------7---5-7---7-5-|


  Q  E E S S S S S S E   Q  Q  Q  Q    Q  E E S S S S S S E
|----------------------|-------------|-----------------------|
|----9-----------------|-------------|----9------------------|
|------0---------------|----5--7--9--|------0----------------|
|-7------7---5-7---7-5-|-7-----------|-7------7---5-7---7-5--|


  Q  E E S S S S S S E   Q  E E S S S S S S E   E S S E S S S E S +S  S S S
|----------------------|----------------------|-------------------------------|
|----9-----------------|----9-----------------|-------------------------------|
|------0---------------|------0---------------|-------5-5-5-7-5-7-(7)-5-7-9---|
|-7------7---5-7---7-5-|-7------7---5-7---7-5-|-7-7-7-------------------------|


  Q  E E S S S S S S E   Q  E E S S S S S S E   Q  E E S S S S S S E
|----------------------|----------------------|----------------------|
|----9-----------------|----9-----------------|----9-----------------|
|------0---------------|------0---------------|------0---------------|
|-7------7---5-7---7-5-|-7------7---5-7---7-5-|-7------7---5-7---7-5-|


  S S E E S S E E S S E   E E E E +S  S E E E   E E E E +S  S E E E
|-----------------------|---------------------|---------------------|
|-----7-7-----7-7-----7-|---------------------|-4-4-4-2-(2)---2-0-2-|
|-7-9-----7-9-----7-9---|-------5-(5)---5-5-5-|---------------------|
|-----------------------|-7-7-7---------------|---------------------|


  E E E E +S  S E E E   E E E E E S S S S S S   E E E E +S  S E E E
|---------------------|-----------------------|---------------------|
|-0-0-0-4-(4)---4-4-4-|-----------------------|---------------------|
|---------------------|-5-5-5---7-7-5-7-5-----|-------5-(5)---5-5-5-|
|---------------------|-------7-----------7-5-|-7-7-7---------------|


  E E E E +S  S E E E   E E E E +S  S E E E   E E E E E S S S S S S
|---------------------|---------------------|-7-7-7---9-9-7-9-7-----|
|-4-4-4-2-(2)---2-0-2-|-0-0-0-4-(4)---4-4-4-|-------9-----------9-7-|
|---------------------|---------------------|-----------------------|
|---------------------|---------------------|-----------------------|


  E E E E +S  S E E E   E E E E +S  S E E E
|---------------------|---------------------|
|---------------------|-4-4-4-2-(2)---2-0-2-|
|-------5-(5)---5---5-|---------------------|
|-7-7-7-----------7---|---------------------|


  E E E E E E E E   E E E E +S  S E E E
|-----------------|----------------------|
|-0-0-0-4-4-4-4-4-|----------------------|
|-----------------|-5-5-5----------------|
|-----------------|-------7-(7)---7-7-5--|


  E E E E +S  S E E E   E E E E +S  S E E E
|---------------------|---------------------|
|---------------------|-4-4-4-2-(2)---2-0-2-|
|-------5-(5)---5---5-|---------------------|
|-7-7-7-----------7---|---------------------|


  E E E E E E E E   E E E E E S S S S S S
|-----------------|------------------------|
|-0-0-0-4-4-4-4-4-|------------------------|
|-----------------|-5-5-5---7-7-5-7-5------|
|-----------------|-------7-----------7-5--|


  E E E E +E  E E E   +E  S S E S S E S S S S S S   E E E E +E  E E E
|-------7-(7)-------|-----------------------------|-------7-(7)-------|
|-----9-------9-7-9-|-(9)-7---7-------------------|-----9-------9-7-9-|
|-------------------|-------9---9-7-9-7-5-7-5-----|-------------------|
|-7-7---------------|-------------------------7-5-|-7-7---------------|


  +S  S S S S S S S S S S S S E.
|--------------------------------|
|-(9)-9-7---7--------------------|
|---------9---9-7-9-7-5-7-5------|
|---------------------------7-5--|


  E E E E +E  E E E   +E  S S E S S E S S S S S S
|-------7-(7)-------|-------------------------------|
|-----9-------9-7-9-|-(9)-7---7---------------------|
|-------------------|-------9---9-7-9-7-5-7-5-------|
|-7-7---------------|-------------------------7-5---|


  E E E E +E  E  E E   +S  S S S S S S S S S S S S S S S   Q  Q  H
|-------7-(7)---11-9-|-(9)-9-7---7-----------------------|------------|
|-----9-------9------|---------9---9-7-9-7---7-----------|------------|
|--------------------|---------------------9---9-7-9-9-9-|------------|
|-7-7----------------|-----------------------------------|-7----------|


  W          W          W          W
|----------|----------|----------|------|
|----------|----------|----------|------|
|----------|----------|----------|------|
|----------|----------|----------|------|


  W          W          W          E E E E +S  S E E E
|----------|----------|----------|---------------------|
|----------|----------|----------|---------------------|
|----------|----------|----------|-------5-(5)---5-5-5-|
|----------|----------|----------|-7-7-7---------------|


  E E E E +S  S E E E   E E E E +S  S E E E   E E E E E S S S S S S
|---------------------|---------------------|-----------------------|
|-4-4-4-2-(2)---2-0-2-|-0-0-0-4-(4)---4-4-4-|-----------------------|
|---------------------|---------------------|-5-5-5---7-7-5-7-5-----|
|---------------------|---------------------|-------7-----------7-5-|


  E E E E +S  S E E E   E E E E +S  S E E E   E E E E +S  S E E E
|---------------------|---------------------|---------------------|
|---------------------|-4-4-4-2-(2)---2-0-2-|-0-0-0-4-(4)---4-4-4-|
|-------5-(5)---5-5-5-|---------------------|---------------------|
|-7-7-7---------------|---------------------|---------------------|


  E E E E E S S S S S S   E E E E +E  E E E   +E  S S E S S E S S S S S S
|-7-7-7---9-9-7-9-7-----|-------7-(7)-------|------------------------------|
|-------9-----------9-7-|-----9-------9-7-9-|-(9)-7---7--------------------|
|-----------------------|-------------------|-------9---9-7-9-7-5-7-5------|
|-----------------------|-7-7---------------|-------------------------7-5--|


  E E E E +E  E E E   +E  S S E S S E S S S S S S   E E E E +E  E E E
|-------7-(7)-------|-----------------------------|-------7-(7)-------|
|-----9-------9-7-9-|-(9)-7---7-------------------|-----9-------9-7-9-|
|-------------------|-------9---9-7-9-7-5-7-5-----|-------------------|
|-7-7---------------|-------------------------7-5-|-7-7---------------|


  +E  S S E S S E S S S S S S
|-----------------------------|
|-(9)-7---7-------------------|
|-------9---9-7-9-7-5-7-5-----|
|-------------------------7-5-|


  E E E E +E  E E E   +E  S S E S S E S S S S S S
|-------7-(7)-------|-----------------------------|
|-----9-------9-7-9-|-(9)-7---7-------------------|
|-------------------|-------9---9-7-9-7-5-7-5-----|
|-7-7---------------|-------------------------7-5-|


  H    +Q..   S
|------------------*|
|------------------*|
|------------------*|
|-7----(7)---------*|




--------------------------------------------------------------------------------


Duration Legend
---------------
W - whole; H - half; Q - quarter; E - 8th; S - 16th; T - 32nd; X - 64th; a - acciaccatura
+ - note tied to previous; . - note dotted; .. - note double dotted
Uncapitalized letters represent notes that are staccato (1/2 duration)
Irregular groupings are notated above the duration line
Duration letters will always appear directly above the note/fret number it represents the
duration for.  Duration letters with no fret number below them represent rests.  Multi-
bar rests are notated in the form Wxn, where n is the number of bars to rest for.  Low
melody durations appear below the staff

Tablature Legend
----------------
 h   - hammer-on
 p   - pull-off
 b   - bend
 pb  - pre-bend
 r   - bend release (if no number after the r, then release immediately)
 /\  - slide into or out of (from/to "nowhere")
 s   - legato slide
 S   - shift slide
 - natural harmonic
[n]  - artificial harmonic
n(n) - tapped harmonic
 ~   - vibrato
 tr  - trill
 T   - tap
 TP  - trem. picking
 PM  - palm muting
\n/  - tremolo bar dip; n = amount to dip
 \n  - tremolo bar down
 n/  - tremolo bar up
/n\  - tremolo bar inverted dip
 =   - hold bend; also acts as connecting device for hammers/pulls
 <> - volume swell (louder/softer)
 x   - on rhythm slash represents muted slash
 o   - on rhythm slash represents single note slash

Misc Legend
-----------
 |  - bar
||  - double bar
||o - repeat start
o|| - repeat end
*|  - double bar (ending)
 :  - bar (freetime)
 $  - Segno
 &  - Coda
Tempo markers -  = BPM(8/16=s8/s16), where s8 = swing 8ths, s16 = swing 16ths



--------------------------------------------------------------------------------

** Generated using Power Tab Editor by Brad Larsen: The Official Power Tab Web Site
Suggest correction
Give kudos to tab author, rate the tab!
1 2 3 4 5
comments
print report bad tab
1 comment total.
0 reply
AtheistBuckeye 10 Jul 22, 2011 12:06 PM

Wrong, the second version is more accurate.

guest
You may want to rate the tab now too:
select rating
Wanna post a correction for this tab? Suggest correction