Oops, an error
Loading. Please wait.

Original Fire Tab

version 1
version 1

Interactive

10,645 views 12 this week
3 commentsread comments
1 2 3 4 5
accurate
x 4
add to favorites
launch autoscroll
font size
0
reset
how to read this tab
guitar tuner
Tab Pro tools
  • play this tab
  • loop segment
  • change instrument
  • show fretboard
  • metronome
×
Best way to learn
"Original Fire"
Autoscroll
slow
fast
+/-
esc
set tempo
stop
Contributor
Intro
(0:17)
E--------------------------------------|
B--------------------------------------|
G--99999999-88888888-77777777-44444444-|  x2
D--77777777-66666666-55555555-22222222-|
A--------------------------------------|
E--------------------------------------|
Verse
(0:32)
E---------------------------------------------------------------------|
B---------------------------------------------------------------------|
G---------------------------------------------------------------------|
D---------------------------------------------------------------------|
A-------2----2-2----2-2----2-2----2-2-xxxx-2-2-xxxx-2-2-xxxx-2-2-xxxx-|
E---5-3-0----3-0----3-0----3-0----3-0-xxxx-3-0-xxxx-3-0-xxxx-3-0-xxxx-|

Chorus
(1:01)
E---------------------------------------------------|
B---------------------------------------------------|
G---------------------------------------------------|  x2
D-------xx-----x-----xx---------xx-----x-----xx-----|
A-----2-xx--22-x-----xx-------2-xx--22-x-----xx-----|
E-5-3-0-xx--00-x-0-0-xx-00-3--0-xx--00-x-0-0-xx-00--|

Break
(1:19)
E-----------------------------|
B-----------------------------|
G-----------------------------|
D-----------------------------|
A-----2-xxxxxxxxxxxx----------|
E-5-3-0-xxxxxxxxxxxx----------|


Bridge
(2:09)
E-----------------------------------------------------------------|
B-----------------------------------------------------------------|
G-----------------------------99999999-88888888-77777777-44444444-|
D-----------------------------77777777-66666666-55555555-22222222-|
A-7-5-7--7-5-7--7-5-2--7-5-2--------------------------------------|
E-5-3-5--5-3-5--5-3-0--5-3-0--------------------------------------|

Solo
(2:27)
Use a Wah pedal in E minor

Post solo Bridge

E-----------------------------------------------------------------|
B-----------------------------------------------------------------|
G-----------------------------99999999-88888888-77777777-44444444-|
D-----------------------------77777777-66666666-55555555-22222222-|
A-7-5-7--7-5-7--7-5-2--7-5-2--------------------------------------|
E-5-3-5--5-3-5--5-3-0--5-3-0--------------------------------------|

Order

Intro
Verse
Chorus
Break
Verse
Chorus
Bridge
Solo
Post Solo Bridge
Chorusx2
comments
print report bad tab
3 comments total.
0 reply
SuperAnalytical wrote on July 20 2006, 11:45 am

I think for the solo an Auto Wah and fuzz works best. It is, after all, a dying cat sound.

0 reply
mr_sinistah wrote on September 28 2006, 06:11 am

hehe Morello called it a "laughing monkey" by the way. Sounds the same though hehehehe.

0 reply
Stratocaster88 wrote on December 10 2006, 01:28 am

there is no autowah and no fuzz...it is tremelo bar and crybaby and pushing string against pickups!

i just submitted a tab it will be in in the next 48 hours or so and i will prove everyone and their ideas wrong....no disrespect to the artist i respect your work it is appreciated

I want to post or [tab]
guest
You may want to rate the tab now too:
select rating
Please do not post tabs as comments. Select "correction" instead!