Oops, an error
Loading. Please wait.

Original Fire Tab

version 2
version 2

Interactive

2,679 views 1 this week
16 commentsread comments
1 2 3 4 5
accurate
x 7
add to favorites
launch autoscroll
font size
0
reset
how to read this tab
guitar tuner
Tab Pro tools
  • play this tab
  • loop segment
  • change instrument
  • show fretboard
  • metronome
×
Best way to learn
"Original Fire"
Autoscroll
slow
fast
+/-
esc
set tempo
stop
Contributor
Difficulty
intermediate
Hey guys....this is my first tab ever and I thought I would bring out one of the first 
Fire" tabs just so the people who can't figure it out, can. It is a brand new song that 
came out on I think July 17th.

These are just most of the parts in the song.


             +++"Original Fire" - Audioslave+++

Tabbed by: thecteam123
Email: asweetsorrow7@aol.com

Tuning: Standard (E,A,D,G,B,e)

INTRO
e|--------------------|
B|--3----2----1----0--|
G|--0----0----0----0--|
D|--------------------|
A|--------------------|
E|--------------------|  Do each of those 8 times each and repeat that whole set twice.


INTRO CONTINUED
e|---------------------------------------------------------------------------|
B|---------------------------------------------------------------------------|
G|---------------------------------------------------------------------------|
D|---9----5----2-------------------------------------------------------------|
A|---9----5----2-------------------------------------------------------------|
E|---7----3----0-------------------------------------------------------------|


VERSE (Bass is going on while Chris sings)(Guitar has little fill-ins)
e|---------------------------------------------------------------------------|
B|---------------------------------------------------------------------------|
G|---------------------------------------------------------------------------|
D|--------------2------------------------------------------------------------|
A|--------------2------------------------------------------------------------|
E|---3(bend)----0------------------------------------------------------------|
   Do this whenever you hear it. Tom (guitarist) eventually starts plucking
   the strings with his hand over them (hold E,A,D)


CHORUS (Guitar starts doing something like this)
e|---------------------------------------------------------------------------|
B|---------------------------------------------------------------------------|
G|---------------------------------------------------------------------------|
D|---2----2-2----2--2----2-2-------------------------------------------------|
A|---2----2-2----2--2----2-2-------------------------------------------------|
E|---0----0-0----0--0----0-0----0--3(bend)-----------------------------------|


CHORUS 2
e|---------------------------------------------------------------------------|
B|---------------------------------------------------------------------------|
G|---------------------------------------------------------------------------|
D|---2----2-2----2--2----2-2----9--5--2--------------------------------------|
A|---2----2-2----2--2----2-2----9--5--2--------------------------------------|
E|---0----0-0----0--0----0-0----7--3--0--------------------------------------|


BRIDGE(I don't know what to call it, it's after like the second CHORUS)
e|---------------------------------------------------------------------------|
B|---------------------------------------------------------------------------|
G|------------------------------------7--------------7-----------------------|
D|---9--5--7--------2--5--7--------9--7--2--------9--7-----------------------|
A|---9--5--7--------2--5--7--------9--5--2--------9--5-----------------------|
E|---7--3--5--------0--3--5--------7--5--0--------7--5-----------------------|
    Right after that last power chord, repeat the INTRO. Right after you do
    that, theres a solo, which I don't think anyone but Tom Morello should
    try to tab haha.

    Well, that's all I have for you. I hope this helps some of you guys. I
    know that there is probably a lot of mistakes in here, but that's fine.


| /  slide up
| \  slide down
| h  hammer-on
| p  pull-off
| ~  vibrato
| +  harmonic
| x  Mute note
=============================================================================
comments
print report bad tab
16 comments total. Showing first comments.
0 reply
Kobain10491 wrote on July 17 2006, 02:01 pm

.....today is july 17th
and i heard it a few days ago

0 reply
_RATM_ wrote on August 16 2006, 10:04 pm

i kno this is a comment place for this tab(the tab is accurate by the way), but i cant help but wonder wat audioslave and Tom (am i the only one annoyed with his solo??) were thinking when they made this song...

0 reply
_RATM_ wrote on August 16 2006, 10:04 pm

....oh well good tab thecteam123

I want to post or [tab]
guest
You may want to rate the tab now too:
select rating
Please do not post tabs as comments. Select "correction" instead!