Oops, an error
Loading. Please wait.

Original Fire Tab

version 3
version 3

Interactive

12,043 views 1 this week
20 commentsread comments
1 2 3 4 5
x 25
add to favorites
launch autoscroll
font size
0
reset
how to read this tab
guitar tuner
Autoscroll
slow
fast
+/-
esc
set tempo
stop
Help us to improve Ultimate-Guitar.com Take our survey!
×
Author
Difficulty
novice
Artist: Audioslave
Song: Original Fire
Album: Revelations
Intro

E|-----------------------------------------------------------------|
B|-5-5-5-5-5-5-5-5-5-5-5-5-5-5-5-5-5-5-5-5-5-5-5-5-5-5-5-5-5-5-5-5-|
G|-7-7-7-7-7-7-7-7-6-6-6-6-6-6-6-6-5-5-5-5-5-5-5-5-4-4-4-4-4-4-4-4-|
D|-----------------------------------------------------------------|
A|-----------------------------------------------------------------|
E|-----------------------------------------------------------------|

E|---------------------------------------------------------------|
B|-5-5-5-5-5-5-5-5-5-5-5-5-5-5-5-5-5-5-5-5-5-5-5-5-5-5-5-5-------|
G|-7-7-7-7-7-7-7-7-6-6-6-6-6-6-6-6-5-5-5-5-5-5-5-5-4-4-4-4-------|
D|---------------------------------------------------------------|
A|----------------------------------------------------------2----|
E|------------------------------------------------------------3b-|

Verse

E|-----------------------------------------------|
B|-----------------------------------------------|
G|-----------------------------------------------|
D|-2----------2----------2----------2----------2-|
A|-2----------2----------2----------2----------2-|
E|-0-------3b-0-------3b-0-------3b-0-------3b-0-|

E|-X-X-X-X-X-X-X-X-X-X-X-X-X-X------X-X-X-X-X-X-X-X-X-X-X-X-X-X------|
B|-X-X-X-X-X-X-X-X-X-X-X-X-X-X------X-X-X-X-X-X-X-X-X-X-X-X-X-X------|
G|-X-X-X-X-X-X-X-X-X-X-X-X-X-X------X-X-X-X-X-X-X-X-X-X-X-X-X-X------|
D|-X-X-X-X-X-X-X-X-X-X-X-X-X-X----2-X-X-X-X-X-X-X-X-X-X-X-X-X-X----2-|
A|-X-X-X-X-X-X-X-X-X-X-X-X-X-X----2-X-X-X-X-X-X-X-X-X-X-X-X-X-X----2-|
E|-X-X-X-X-X-X-X-X-X-X-X-X-X-X-3b-0-X-X-X-X-X-X-X-X-X-X-X-X-X-X-3b-0-|

E|-X-X-X-X-X-X-X-X-X-X-X-X-X-X------X-X-X-X-X-X-X-X-X-X-X-X---------|
B|-X-X-X-X-X-X-X-X-X-X-X-X-X-X------X-X-X-X-X-X-X-X-X-X-X-X---------|
G|-X-X-X-X-X-X-X-X-X-X-X-X-X-X------X-X-X-X-X-X-X-X-X-X-X-X---------|
D|-X-X-X-X-X-X-X-X-X-X-X-X-X-X----2-X-X-X-X-X-X-X-X-X-X-X-X-------2-|
A|-X-X-X-X-X-X-X-X-X-X-X-X-X-X----2-X-X-X-X-X-X-X-X-X-X-X-X--2----2-|
E|-X-X-X-X-X-X-X-X-X-X-X-X-X-X-3b-0-X-X-X-X-X-X-X-X-X-X-X-X----3b-0-|

Chorus
							  x2
E|----------------------------------------------------------|
B|----------------------------------------------------------|
G|----------------------------------------------------------|
D|-2---X-2-2--X-2-2--X-2-2-----2---X-2-2--X--2-2--2-------2-|
A|-2---X-2-2--X-2-2--X-2-2-----2---X-2-2--X--2-2--2--2----2-|
E|-0---X-0-0--X-0-0--X-0-0--3b-0---X-0-0--X--0-0--0----3b-0-|

Post-Chorus

E|-X-X-X-X-X-X-X-X-X-X-X-X----|
B|-X-X-X-X-X-X-X-X-X-X-X-X----|
G|-X-X-X-X-X-X-X-X-X-X-X-X----|
D|-X-X-X-X-X-X-X-X-X-X-X-X----|
A|-X-X-X-X-X-X-X-X-X-X-X-X----|
E|-X-X-X-X-X-X-X-X-X-X-X-X-3b-|

Verse

E|-----------------------------------------------|
B|-----------------------------------------------|
G|-----------------------------------------------|
D|-2----------2----------2----------2----------2-|
A|-2----------2----------2----------2----------2-|
E|-0-------3b-0-------3b-0-------3b-0-------3b-0-|

E|-X-X-X-X-X-X-X-X-X-X-X-X-X-X------X-X-X-X-X-X-X-X-X-X-X-X-X-X------|
B|-X-X-X-X-X-X-X-X-X-X-X-X-X-X------X-X-X-X-X-X-X-X-X-X-X-X-X-X------|
G|-X-X-X-X-X-X-X-X-X-X-X-X-X-X------X-X-X-X-X-X-X-X-X-X-X-X-X-X------|
D|-X-X-X-X-X-X-X-X-X-X-X-X-X-X----2-X-X-X-X-X-X-X-X-X-X-X-X-X-X----2-|
A|-X-X-X-X-X-X-X-X-X-X-X-X-X-X----2-X-X-X-X-X-X-X-X-X-X-X-X-X-X----2-|
E|-X-X-X-X-X-X-X-X-X-X-X-X-X-X-3b-0-X-X-X-X-X-X-X-X-X-X-X-X-X-X-3b-0-|

E|-X-X-X-X-X-X-X-X-X-X-X-X-X-X------X-X-X-X-X-X-X-X-X-X-X-X---------|
B|-X-X-X-X-X-X-X-X-X-X-X-X-X-X------X-X-X-X-X-X-X-X-X-X-X-X---------|
G|-X-X-X-X-X-X-X-X-X-X-X-X-X-X------X-X-X-X-X-X-X-X-X-X-X-X---------|
D|-X-X-X-X-X-X-X-X-X-X-X-X-X-X----2-X-X-X-X-X-X-X-X-X-X-X-X-------2-|
A|-X-X-X-X-X-X-X-X-X-X-X-X-X-X----2-X-X-X-X-X-X-X-X-X-X-X-X--2----2-|
E|-X-X-X-X-X-X-X-X-X-X-X-X-X-X-3b-0-X-X-X-X-X-X-X-X-X-X-X-X----3b-0-|


Chorus

E|----------------------------------------------------------|
B|----------------------------------------------------------|
G|----------------------------------------------------------|
D|-2---X-2-2--X-2-2--X-2-2-----2---X-2-2--X--2-2--2-------2-|
A|-2---X-2-2--X-2-2--X-2-2-----2---X-2-2--X--2-2--2--2----2-|
E|-0---X-0-0--X-0-0--X-0-0--3b-0---X-0-0--X--0-0--0----3b-0-|


E|---------------------------------------------------------|
B|---------------------------------------------------------|
G|-------------------------------------------------------2-|
D|----X-2-2--X-2-2--X-2-2-----2---X-2-2--X--2-2--2-------2-|
A|----X-2-2--X-2-2--X-2-2-----2---X-2-2--X--2-2--2--2----0-|
E|----X-0-0--X-0-0--X-0-0--3b-0---X-0-0--X--0-0--0----3b---|

Bridge

E|----------------------------------|
B|----------------------------------|
G|----------------------------------|
D|----------------------------------|
A|-----------------2--5--------2--5-|
E|---0--3--5-------------0----------|

E|-----------------------------------------------------------------|
B|-5-5-5-5-5-5-5-5-5-5-5-5-5-5-5-5-5-5-5-5-5-5-5-5-5-5-5-5-5-5-5-5-|
G|-7-7-7-7-7-7-7-7-6-6-6-6-6-6-6-6-5-5-5-5-5-5-5-5-4-4-4-4-4-4-4-4-|
D|-----------------------------------------------------------------|
A|-----------------------------------------------------------------|
E|-----------------------------------------------------------------|

Solo-ok its obvious this is another one of Morello's wacky solos...im not exactly sure onethis one
but i'm guessing its probably a slide rubbed over the strings right over the pick-ups 
a wah going
back and forth and manipulating the noise with the toggle switch by flipping it on and 
people should
know what i am talking about...there might also be a filter on the whammy...possibly the 
1 octave or harmonized
up 1 and regular and the same time..please leave comments if anyone has a better idea.

Bridge

E|----------------------------------|
B|----------------------------------|
G|----------------------------------|
D|----------------------------------|
A|-----------------------------2--5-|
E|---0--3--5-------0--3--5----------|


E|---------------------------------------------------------------|
B|-5-5-5-5-5-5-5-5-5-5-5-5-5-5-5-5-5-5-5-5-5-5-5-5-5-5-5-5-------|
G|-7-7-7-7-7-7-7-7-6-6-6-6-6-6-6-6-5-5-5-5-5-5-5-5-4-4-4-4-------|
D|---------------------------------------------------------------|
A|----------------------------------------------------------2----|
E|------------------------------------------------------------3b-|

Chorus

E|---------------------------------------------------------|
B|---------------------------------------------------------|
G|---------------------------------------------------------|
D|-2---X-2-2--X-2-2--X-2-2-----2---X-2-2--X--2-2--2-2------|
A|-2---X-2-2--X-2-2--X-2-2-----2---X-2-2--X--2-2--2-2------|
E|-0---X-0-0--X-0-0--X-0-0--3b-0---X-0-0--X--0-0--0-0---3b-|

							x2
E|--------------------------------------------------------|
B|--------------------------------------------------------|
G|--------------------------------------------------------|
D|-2---X-2-2--X-2-2--X-2-2-----2---X-2-2--X--2-2--2-------|
A|-2---X-2-2--X-2-2--X-2-2-----2---X-2-2--X--2-2--2--2----|
E|-0---X-0-0--X-0-0--X-0-0--3b-0---X-0-0--X--0-0--0----3b-|

E|---|
B|---|
G|---|
D|-2-|
A|-2-|
E|-0-|
Suggest correction
comments
print report bad tab
20 comments total. Showing first comments.
0 reply
lookie here 40 Aug 14, 2006 06:36 PM

Good tab but the solo(from what i got from the video) is Tom detuning the string(whammy bar, tuning peg) and wahand playing around with the low e string

0 reply
GATW 10 Sep 09, 2006 11:32 PM

yo bloody gud tab and the intro is better than the other tab that has 5 stars also

0 reply
tst1189 82 Sep 10, 2006 05:52 PM

thanks i hate it when people put tabs that are supposed to sound like they are right but its obvious they didnt take the time to write it correctly...your graciousness is appreciated

guest
You may want to rate the tab now too:
select rating
Wanna post a correction for this tab? Suggest correction