Oops, an error
Loading. Please wait.

Original Fire Tab

version 4
version 4

Interactive

3,693 views 6 this week
7 commentsread comments
1 2 3 4 5
accurate
x 3
add to favorites
launch autoscroll
font size
0
reset
how to read this tab
guitar tuner
Autoscroll
slow
fast
+/-
esc
set tempo
stop
Help us to improve Ultimate-Guitar.com Take our survey!
×
Author
Difficulty
novice
Band: Audioslave
Song: Original Fire
Album: Revelations
Track 5
Tabbed by Tyler Merle (Thrall)

Everything but the solo ladies and gents. Hey ho, here we go!

NOTE:Every dash (-) represents ane 16th note. Every squiggle (~) represents the duration
the note or chord previously mentioned. EX: 2~~~----3~~~~~~~
indicates that the "2" is a quarter note and that the "3" is a whole note (assuming that
is 4/4 timing). Also, all of the periods (.) underneath the tablature indicate a palm
on the note or notes directly above them.

Intro                                              1.______________
e----------------|----------------|----------------|----------------|
B----------------|----------------|----------------|----------------|
G1212121212121212|1111111111111111|1010101010101010|9~9~9~9~9~9~9~9~|
D1212121212121212|1111111111111111|1010101010101010|9~9~9~9~9~9~9~9~|
A----------------|----------------|----------------|----------------|
E----------------|----------------|----------------|----------------|

2._______________Verse
e----------------|----------------|----------------|----------------|
B----------------|----------------|----------------|----------------|
G9~9~9~9~--------|----------------|----------------|----------------|
D9~9~9~9~--------|----------------|----------------|----------------|
A--------9~~~5~~~|2~~~------------|------------5~~~|2~~~------------|
E--------7~~~3~~~|0~~~------------|------------3~~~|0~~~------------|

e----------------|----------------|----------------|----------------|
B----------------|----------------|----------------|----------------|
G----------------|----------------|----------------|----------------|
D----------------|----------------|----------------|----------------|
A------------5~~~|2~~~------------|------------5~~~|2~~~------------|
E------------3~~~|0~~~------------|------------3~~~|0~~~------------|

e----------------|----------------|----------------|----------------|
B----------------|----------------|----------------|----------------|
G----------------|----------------|----------------|----------------|
D----------------|----------------|----------------|----------------|
A------------5~~~|2~~~x-x-x-x-x-x-|x-x-x-x-x-x-5~~~|2~~~x-x-x-x-x-x-|
E------------3~~~|0~~~x-x-x-x-x-x-|x-x-x-x-x-x-3~~~|0~~~x-x-x-x-x-x-|
                      . . . . . .  . . . . . .          . . . . . .
e----------------|----------------|----------------|----------------|
B----------------|----------------|----------------|----------------|
G----------------|----------------|----------------|----------------|
D----------------|----------------|----------------|----------------|
Ax-x-x-x-x-x-5~~~|2~~~x-x-x-x-x-x-|x-x-x-x-x-x-5~~~|2~~~x-x-x-x-x-x-|
Ex-x-x-x-x-x-3~~~|0~~~x-x-x-x-x-x-|x-x-x-x-x-x-3~~~|0~~~x-x-x-x-x-x-|
 . . . . . .          . . . . . .  . . . . . .          . . . . . .                          Chorus
e----------------|----------------|----------------|----------------|
B----------------|----------------|----------------|----------------|
G----------------|----------------|----------------|----------------|
D----------------|----x------x----|----------------|----x------x----|
Ax-x-x-x-9~~~5~~~|2~--x-2~2~-x-2~-|-2~--2~-2~-x5~~~|2~--x-2~2~-x-2~-|
Ex-x-x-x-7~~~3~~~|0~--x-0~0~-x-0~-|-0~--0~-0~-x3~~~|0~--x-0~0~-x-0~-|
 . . . .
e----------------|----------------|----------------|----------------|
B----------------|----------------|----------------|----------------|
G----------------|----------------|----------------|----------------|
D----------------|----x------x----|----------------|----x------x----|
A-2~--2~-9~~~5~~~|2~--x-2~2~-x-2~-|-2~--2~-2~-x5~~~|2~--x-2~2~-x-2~-|
E-0~--0~-7~~~3~~~|0~--x-0~0~-x-0~-|-0~--0~-0~-x3~~~|0~--x-0~0~-x-0~-|
                 Interlude                         Verse
e----------------|----------------|----------------|----------------|
B----------------|----------------|----------------|----------------|
G----------------|----------------|----------------|----------------|
D----------------|----------------|----------------|----------------|
A-2~--2~-9~~~5~~~|2~~~x-x-x-x-x-x-|x-x-x-x-x-x-5~~~|2~~~------------|
E-0~--0~-7~~~3~~~|0~~~x-x-x-x-x-x-|x-x-x-x-x-x-3~~~|0~~~------------|
                      . . . . . .  . . . . . .
e----------------|----------------|----------------|----------------|
B----------------|----------------|----------------|----------------|
G----------------|----------------|----------------|----------------|
D----------------|----------------|----------------|----------------|
A------------5~~~|2~~~------------|------------5~~~|2~~~------------|
E------------3~~~|0~~~------------|------------3~~~|0~~~------------|

e----------------|----------------|----------------|----------------|
B----------------|----------------|----------------|----------------|
G----------------|----------------|----------------|----------------|
D----------------|----------------|----------------|----------------|
A------------5~~~|2~~~------------|------------5~~~|2~~~x-x-x-x-x-x-|
E------------3~~~|0~~~------------|------------3~~~|0~~~x-x-x-x-x-x-|
                                                        . . . . . .
e----------------|----------------|----------------|----------------|
B----------------|----------------|----------------|----------------|
G----------------|----------------|----------------|----------------|
D----------------|----------------|----------------|----------------|
Ax-x-x-x-x-x-5~~~|2~~~x-x-x-x-x-x-|x-x-x-x-x-x-5~~~|2~~~x-x-x-x-x-x-|
Ex-x-x-x-x-x-3~~~|0~~~x-x-x-x-x-x-|x-x-x-x-x-x-3~~~|0~~~x-x-x-x-x-x-|
 . . . . . .          . . . . . .  . . . . . .          . . . . . .
                                                   Chorus
e----------------|----------------|----------------|----------------|
B----------------|----------------|----------------|----------------|
G----------------|----------------|----------------|----------------|
D----------------|----------------|----------------|----x------x----|
Ax-x-x-x-x-x-5~~~|2~~~x-x-x-x-x-x-|x-x-x-x-9~~~5~~~|2~--x-2~2~-x-2~-|
Ex-x-x-x-x-x-3~~~|0~~~x-x-x-x-x-x-|x-x-x-x-7~~~3~~~|0~--x-0~0~-x-0~-|
 . . . . . .          . . . . . .  . . . .
e----------------|----------------|----------------|----------------|
B----------------|----------------|----------------|----------------|
G----------------|----------------|----------------|----------------|
D----------------|----x------x----|----------------|----x------x----|
A-2~--2~-2~-x5~~~|2~--x-2~2~-x-2~-|-2~--2~-9~~~5~~~|2~--x-2~2~-x-2~-|
E-0~--0~-0~-x3~~~|0~--x-0~0~-x-0~-|-0~--0~-7~~~3~~~|0~--x-0~0~-x-0~-|
                                                   Bridge
e----------------|----------------|----------------|----------------|
B----------------|----------------|----------------|----------------|
G----------------|----------------|----------------|----------------|
D----------------|----x------x----|----------------|----------------|
A-2~--2~-2~-x5~~~|2~--x-2~2~-x-2~-|-2~--2~-9~~~5~~~|7~~~------------|
E-0~--0~-0~-x3~~~|0~--x-0~0~-x-0~-|-0~--0~-7~~~3~~~|5~~~~-----------|

e----------------|----------------|----------------|----------------|
B----------------|----------------|----------------|----------------|
G----------------|----------------|----------------|----------------|
D----------------|----------------|----------------|----------------|
A--------2~~~5~~~|7~~~------------|--------9~~~12~~|2~~~------------|
E--------0~~~3~~~|5~~~------------|--------7~~~10~~|0~~~------------|

e----------------|----------------|----------------|----------------|
B----------------|----------------|----------------|----------------|
G----------------|1212121212121212|1111111111111111|1010101010101010|
D----------------|1212121212121212|1111111111111111|1010101010101010|
A--------9~~~12~~|----------------|----------------|----------------|
E--------7~~~10~~|----------------|----------------|----------------|

e----------------------|All that i know about the solo is that Tom uses a
B----------------------|Original Whammy and that there is a guitar in the
G9~9~9~9~9~9~9~9~|background that plays a G at the and of every-other
D9~9~9~9~9~9~9~9~|measure. If you listen you can here it. Here is my

of how he plays this G chord. The
E----------------|1st time is at the end of the second measure of the solo--|

e----------------|----------------|----------------|----------------|
B----------------|------------15~~|----------------|------------15~~|
G----------------|------------16~~|----------------|------------16~~|
D----------------|------------17~~|----------------|------------17~~|
A----------------|----------------|----------------|----------------|
E----------------|----------------|----------------|----------------|

e----------------|----------------|----------------|----------------|
B----------------|------------15~~|----------------|----------------|
G----------------|------------16~~|----------------|----------------|
D----------------|------------17~~|----------------|----------------|
A----------------|----------------|----------------|--------2~~~5~~~|
E----------------|----------------|----------------|--------0~~~3~~~|

e----------------|----------------|----------------|----------------|
B----------------|----------------|----------------|----------------|
G----------------|----------------|----------------|----------------|
D----------------|----------------|----------------|----------------|
A7~~~------------|--------2~~~5~~~|7~~~------------|--------9~~~12~~|
E5~~~------------|--------0~~~3~~~|5~~~------------|--------7~~~10~~|

e----------------|----------------|----------------|----------------|
B----------------|----------------|----------------|----------------|
G1212121212121212|1111111111111111|1010101010101010|9~9~9~9~--------|
D1212121212121212|1111111111111111|1010101010101010|9~9~9~9~--------|
A----------------|----------------|----------------|--------9~~~5~~~|
E----------------|----------------|----------------|--------7~~~3~~~|

e----------------|----------------|----------------|----------------|
B----------------|----------------|----------------|----------------|
G----------------|----------------|----------------|----------------|
D----x------x----|----------------|----x------x----|----------------|
A2~--x-2~2~-x-2~-|-2~--2~-2~-x5~~~|2~--x-2~2~-x-2~-|-2~--2~-2~-x5~~~|
E0~--x-0~0~-x-0~-|-0~--0~-0~-x3~~~|0~--x-0~0~-x-0~-|-0~--0~-0~-x3~~~|

e----------------|----------------|----------------|----------------|
B----------------|----------------|----------------|----------------|
G----------------|----------------|----------------|----------------|
D----x------x----|----------------|----x------x----|----------------|
A2~--x-2~2~-x-2~-|-2~--2~-2~-x5~~~|2~--x-2~2~-x-2~-|-2~--2~-9~~~5~~~|
E0~--x-0~0~-x-0~-|-0~--0~-0~-x3~~~|0~--x-0~0~-x-0~-|-0~--0~-7~~~3~~~|

e----------------|----------------|----------------|----------------|
B----------------|----------------|----------------|----------------|
G----------------|----------------|----------------|----------------|
D----x------x----|----------------|----x------x----|----------------|
A2~--x-2~2~-x-2~-|-2~--2~-2~-x5~~~|2~--x-2~2~-x-2~-|-2~--2~-2~-x5~~~|
E0~--x-0~0~-x-0~-|-0~--0~-0~-x3~~~|0~--x-0~0~-x-0~-|-0~--0~-0~-x3~~~|

e----------------|----------------|----------------|----------------|
B----------------|----------------|----------------|----------------|
G----------------|----------------|----------------|----------------|
D----x------x----|----------------|----x------x----|----------------|
A2~--x-2~2~-x-2~-|-2~--2~-2~-x5~~~|2~--x-2~2~-x-2~-|-2~--2~-9~~~5~~~|
E0~--x-0~0~-x-0~-|-0~--0~-0~-x3~~~|0~--x-0~0~-x-0~-|-0~--0~-7~~~3~~~|

The guitar that Tom uses to dub in the solo can be heard doing something with a Whammy
during the last eight measures of the song but, seeing as to how I don't have a Whammy
(yet), I can't figure out what he's doing in the background. you can either wait until I
one (soon, hopefully) or somebody who has one can tab it out. Anyway, that took about
hours due to the pain in the butt of figuring out the timing, which I will probably not
ever again unless I am bored to death, it's easy to figure out, or I'm getting paid to
it. Any corrections, questions, or death threats can be sent to ty1470@yahoo.com. This 
my first guitar tab that I have posted online, so if it's no big deal, I ask that you
it. No biggie though. Just hoped I could help everybody keep on rocking.
                                                            -Tyler
Suggest correction
Give kudos to tab author, rate the tab!
1 2 3 4 5
comments
print report bad tab
7 comments total. Showing first comments.
0 reply
tst1189 82 wrote on August 12 2006, 11:54 am

wow im suprised you heard that backing guitar in the solo...

0 reply
DarkGrey 20 wrote on September 9 2006, 03:14 pm

Good job, theres some things that need cleaned up. I might incorperate some of these ideas into my tab of this song..

0 reply
justin43091 10 wrote on September 11 2006, 09:39 pm

everythings solid, except the intro

guest
You may want to rate the tab now too:
select rating
Please do not post tabs as comments. Select "correction" instead!