Oops, an error
Loading. Please wait.

Original Fire Tab

version 5
version 5

Interactive

6,710 views 12 this week
8 commentsread comments
1 2 3 4 5
accurate
x 5
add to favorites
launch autoscroll
font size
0
reset
how to read this tab
guitar tuner
Tab Pro tools
  • play this tab
  • loop segment
  • change instrument
  • show fretboard
  • metronome
×
Best way to learn
"Original Fire"
Autoscroll
slow
fast
+/-
esc
set tempo
stop
Contributor
Original Fire by Audioslave

3b-bend 1/4
/-slide


e----------------------------------------------------|
b----------------------------------------------------|
g----------------------------------------------------|
d----------------------------------------------------|
a-/17-17-17-17-17-17-17-17-16-16-16-16-16-16-16-16---|
E--0--0--0--0--0--0--0--0--0--0--0--0--0--0--0--0----|

e----------------------------------------------------|
b----------------------------------------------------|
g----------------------------------------------------| x2
d----------------------------------------------------|
a--15-15-15-15-15-15-15-15-14-14-14-14-14-14-14-14---|
E--0--0--0--0--0--0--0--0--0--0--0--0--0--0--0--0----|

e----------------------------------------------------|
b----------------------------------------------------|
g----------------------------------------------------|
d----------------------------------------------------|
a--14-14-14-14/--2--2--------------------------------|
E--0--0--0--0-----3-0--------------------------------|

Main riff
e----------------------------------------------------|
b----------------------------------------------------|
g----------------------------------------------------|
d----------------------------------------------------|
a-----2----------------------------------------------|
E—3b--0----------------------------------------------|
Repeat a bunch of times
e--x-x-x-x-x-x-x-x-x-x-x-x---------------------------|
b--x-x-x-x-x-x-x-x-x-x-x-x---------------------------|
g--x-x-x-x-x-x-x-x-x-x-x-x---------------------------|
d--x-x-x-x-x-x-x-x-x-x-x-x---------------------------|
a--x-x-x-x-x-x-x-x-x-x-x-x----2----------------------|
E--------------------------3b-0----------------------|

Pre-chorus
e----------------------------------------------------|
b----------------------------------------------------|
g----------------------------------------------------|
d----------------------------------------------------|
a--2---2---------------------------------------------|
E---3b-0---------------------------------------------|
Chorus
e----------------------------------------------------|
b----------------------------------------------------|
g----------------------------------------------------|
d--2-2-2-2-2-2---------------------------------------|
a--2-2-2-2-2-2----2----------------------------------|
E--0-0-0-0-0-0-3b-0----------------------------------|

e----------------------------------------------------|
b----------------------------------------------------|
g----------------------------------------------------|x2
d--2-2-2-2-2-2---------------------------------------|
a--2-2-2-2-2-2--2---2--------------------------------|
E--0-0-0-0-0-0---3b-0--------------------------------|
Play the that whole thing once more than this

e------------------------------------------------------------|
b------------------------------------------------------------|
g------------------------------------------------------------|
d------------------------------------------------------------|
a-2---2------0----2-5---2-5--17-17-17-17-17-17-17-17---------|
E---3-0---0-3--------0-------0--0--0--0--0--0--0--0----------|

e----------------------------------------------------|
b----------------------------------------------------|
g----------------------------------------------------|
d----------------------------------------------------|
a--16-16-16-16-16-16-16-16-15-15-15-15-15-15-15-15---|
E--0--0--0--0--0--0--0--0--0--0--0--0--0--0--0--0----|

e----------------------------------------------------|
b----------------------------------------------------|
g----------------------------------------------------|
d----------------------------------------------------|
a--14-14-14-14-14-14-14-14---------------------------|
E--0--0--0--0--0--0--0--0----------------------------|

The solo is just loosening up the strings with the tuning keys and using your right hand
hit the strings against the pick ups to make higher sounds raise the tension of the string
This is done on the big E string while rocking the wah wah pedal up and down. This hopefully makes sense to 
If it doesn’t in the video you can kind of see what he is doing.

e----------------------------------------------------|
b----------------------------------------------------|
g----------------------------------------------------|
d----------------------------------------------------|
a-----0------0----2-5--------------------------------|
E--0-3----0-3---------0------------------------------|

e----------------------------------------------------|
b----------------------------------------------------|
g----------------------------------------------------|
d----------------------------------------------------|
a--/17-17-17-17-17-17-17-17-16-16-16-16-16-16-16-16--|
E---0--0--0--0--0--0--0--0--0--0--0--0--0--0--0--0---|

e-----------------------------------------------------|
b-----------------------------------------------------|
g-----------------------------------------------------|
d-----------------------------------------------------|
a--15-15-15-15-15-15-15-15-14-14-14-14-14-14-14-14----|
E--0--0--0--0--0--0--0--0--0--0--0--0--0--0--0--0-----|
Play the chorus through out the rest of the song
comments
print report bad tab
8 comments total. Showing first comments.
0 reply
mr_sinistah wrote on September 27 2006, 11:24 am

Intro sucks there...sounds horrible like that

0 reply
primoriot wrote on October 6 2006, 06:37 pm

Actually, that is the correct way to play the intro.

I also wanted to comment on the solo. I read in one of this month's guitar mags (guitar world, or guitar one or something like that) that Tom doesn't use the tuning heads for the solo. He places his fret hand on the strings over the pickups and pushes them down to the pickups. He uses his pick hand to scrap along the wound strings while simultaneously depressing his whammy pedal and changing the tension on the strings by raising and pushing the strings against the pickups. The pitch changes you hear are a result of two things: the location on the fretboard of the pickscrapes and how far Tom is pressing the strings against the pickups.

0 reply
mr_sinistah wrote on October 10 2006, 05:38 am

nope, no opens at all
play 17,16,15,14 where there are 0's

I want to post or [tab]
guest
You may want to rate the tab now too:
select rating
Please do not post tabs as comments. Select "correction" instead!