Oops, an error
Loading. Please wait.

Original Fire Tab

version 6
version 6

Interactive

1,076 views 1 this week
5 commentsread comments
1 2 3 4 5
accurate
x 3
add to favorites
launch autoscroll
font size
0
reset
how to read this tab
guitar tuner
Autoscroll
slow
fast
+/-
esc
set tempo
stop
Help us to improve Ultimate-Guitar.com Take our survey!
×
Author
Difficulty
novice
ORIGINAL FIRE
by
Audioslave           Tuning: Standard
INTRO:
|-----------------------------------------------------------------|
|-----------------------------------------------------------------|
|-----------------------------------------------------------------|
|-----------------------------------------------------------------|
|------/-------------17-17-17-17-17-17-17-17----------------------|
|---------------------0--0--0--0--0--0--0--0----------------------|


|----------------------------------------------------------------|
|----------------------------------------------------------------|
|----------------------------------------------------------------|
|----------------------------------------------------------------|
|-------------------16-16-16-16-16-16-16-16----------------------|
|--------------------0--0--0--0--0--0--0--0----------------------|


|---------------------------------------------------------------|
|---------------------------------------------------------------|
|---------------------------------------------------------------|
|---------------------------------------------------------------|
|-------------------15-15-15-15-15-15-15-15---------------------|
|--------------------0--0--0--0--0--0--0--0---------------------|


|----------------------------------------------------------------|
|----------------------------------------------------------------|
|----------------------------------------------------------------|
|----------------------------------------------------------------|
|-------------------14-14-14-14-14-14-14-14----------------------|
|--------------------0--0--0--0--0--0--0--0----------------------|
VERSE:
With Distortion
|------------------------------------------------------------|    X2
|------------------------------------------------------------|
|------------------THEN--------------------------------------|
|------------------------------------------------------------|
|--------2-------------------2-x-x-x-x-x-x-x-x-x-x-x-x-------|
|----3b--0---------------3b--0-x-x-x-x-x-x-x-x-x-x-x-x-------|

CHORUS:
|--------------------------------------------------------------------------|
|--------------------------------------------------------------------------|
|--------------------------------------------------------------------------|
|--------------------------------------------------------------------------|
|---2---2-----2-2----2--------2---2-----2-2----2------2---------2----------|
|---0---0-----0-0----0----3b--0---0-----0-0----0---0------3b----0----------|

Solo:
With Wah and preferably a Whammy Bar  X = press bar against b and e strings
|----------------------------------------------------------------|
|----------------------------------------------------------------|
|----------------------------------------------------------------|
|----------------------------------------------------------------|
|----------------------------------------------------------------|
|-x---x--x----x-x-x-x----x---x--x---x-----x--x---x--x--x---------|
At the end of the solo where i stopped tabbing it go crazy with the bar hitting every 
to create a heightening and lowering effect


Bridge Before Solo:
|------------------------------------------------|      Play Intro then
|------------------------------------------------|          go into solo
|------------------------------------------------|
|------------------------------------------------|
|-0------------------0----2--5-----------2------5|
|---------0---3-------------------0--------------|


2nd Bridge:
|----------------------------------------------|             Play Intro
|----------------------------------------------|        then go into the
|----------------------------------------------|          Chorus and exit
|----------------------------------------------|           on an open
|-0------------0----------2---------5----------|               Low E
|-----0-----3----------------------------------|
Suggest correction
What's this?
You can suggest a correction to this tab. Community and Mods will review your correction and vote to approve or reject it.
comments
We did not receive enough feedback on this tab! Please rate:
print report bad tab
1 2 3 4 5
5 comments total. Showing first comments.
0 reply
Maitinin 23,611 wrote on December 5 2006, 08:53 am

great tab, you just need the solo for it to be 5stars

0 reply
JimmyC8277 609 wrote on December 5 2006, 04:47 pm

hold on i know the solo:

tom presses his whammy bar down all the way and then he "slaps the monkeys" against the pickups along with manipulating his wah pedal. and during the high pitched "monkey laughs" he quickly yanks up the bar and lowers it again. pretty simple

0 reply
Stratocaster88 741 wrote on December 10 2006, 01:41 am

JimmyC8277 you are the only person in all of ultimate guitar (besides me) taht i read a correct comment on the solo! me n u wud get along great...

p.s. i just submitted a tab for the solo...100% correct... it will be in in the next 48 hours or so and i will prove everyone and their ideas wrong....no disrespect to the artist i respect your work it is appreciated

COMMENT ON MY TAB

guest
You may want to rate the tab now too:
select rating
Please do not post tabs as comments. Select "correction" instead!