Oops, an error
Loading. Please wait.

Original Fire Tab

version 7
version 7

Interactive

8,248 views 1 this week
13 commentsread comments
1 2 3 4 5
x 9
add to favorites
launch autoscroll
font size
0
reset
how to read this tab
guitar tuner
Autoscroll
slow
fast
+/-
esc
set tempo
stop
Help us to improve Ultimate-Guitar.com Take our survey!
×
Author
Intro:

wait for drums

Clean/Distortion (You decide)

e---------------------------------------------------------------------------|
B-----5-5-5-5-5-5-5-5---5-5-5-5-5-5-5-5---5-5-5-5-5-5-5-5---5-5-5-5-5-5-5-5-|
G-----7-7-7-7-7-7-7-7---6-6-6-6-6-6-6-6---5-5-5-5-5-5-5-5---4-4-4-4-4-4-4-4-|
D---------------------------------------------------------------------------|
A---------------------------------------------------------------------------|
E---------------------------------------------------------------------------|

e-------------------------------------------------------------------|
B-----5-5-5-5-5-5-5-5---5-5-5-5-5-5-5-5---5-5-5-5-5-5-5-5---5-5-5-5-|
G-----7-7-7-7-7-7-7-7---6-6-6-6-6-6-6-6---5-5-5-5-5-5-5-5---4-4-4-4-|
D-------------------------------------------------------------------|
A-------------------------------------------------------------------|
E-------------------------------------------------------------------|

Pre Verse:

Distortion

e-------------------|
B-------------------|
G-------------------|
D---------2---------|
A---2-----2---------|
E------3--0---------|

Verse:

wait for bass

Distortion

e-----------------------------------------------------------------------|
B-----------------------------------------------------------------------|
G-----------------------------------------------------------------------|
D-----2-----------------2------------------2--------------------2-------|
A-----2----bass---------2-----bass---------2-----bass-----------2-------|
E---3-0---------------3-0----------------3-0------------------3-0-------|


e-------xxxxxxxxxxxxx-----xxxxxxxxxxxxxx-----xxxxxxxxxxxxxxx------------|
B-------xxxxxxxxxxxxx-----xxxxxxxxxxxxxx-----xxxxxxxxxxxxxxx------------|
G-------xxxxxxxxxxxxx-----xxxxxxxxxxxxxx-----xxxxxxxxxxxxxxx------------|
D-----2-xxxxxxxxxxxxx---2-xxxxxxxxxxxxxx---2-xxxxxxxxxxxxxxx----2-------|
A-----2-xxxxxxxxxxxxx---2-xxxxxxxxxxxxxx---2-xxxxxxxxxxxxxxx----2-------|
E---3-0-xxxxxxxxxxxxx-3-0-xxxxxxxxxxxxxx-3-0-xxxxxxxxxxxxxxx--3-0-------|

e-----xxxxxxxxxxx----------------------|
B-----xxxxxxxxxxx----------------------|
G-----xxxxxxxxxxx----------------------|
D-----xxxxxxxxxxx----------2-----------|
A-----xxxxxxxxxxx----2-----2-----------|
E-----xxxxxxxxxxx-------3--0-----------|

Chorus

Distortion
x2
play twice
e-----------------------------------------------------------------------|
B-----------------------------------------------------------------------|
G-----------------------------------------------------------------------|
D-----22---2----2---22------2------22---2-----2---2-----------2---------|
A-----22---2----2---22------2------22---2-----2---2--2--------2---------|
E-----00---0----0---00----3-0------00---0-----0---0------3----0---------|

e----xxxxxxxxxxxxxx----------|
B----xxxxxxxxxxxxxx----------|
G----xxxxxxxxxxxxxx----------|
D----xxxxxxxxxxxxxx-----2----|
A----xxxxxxxxxxxxxx-----2----|
E----xxxxxxxxxxxxxx---3-0----|

Verse:

wait for bass

Distortion

e-----------------------------------------------------------------------|
B-----------------------------------------------------------------------|
G-----------------------------------------------------------------------|
D-----2-----------------2------------------2--------------------2-------|
A-----2----bass---------2-----bass---------2-----bass-----------2-------|
E---3-0---------------3-0----------------3-0------------------3-0-------|

e-------xxxxxxxxxxxxx-----xxxxxxxxxxxxxx-----xxxxxxxxxxxxxxx------------|
B-------xxxxxxxxxxxxx-----xxxxxxxxxxxxxx-----xxxxxxxxxxxxxxx------------|
G-------xxxxxxxxxxxxx-----xxxxxxxxxxxxxx-----xxxxxxxxxxxxxxx------------|
D-----2-xxxxxxxxxxxxx---2-xxxxxxxxxxxxxx---2-xxxxxxxxxxxxxxx----2-------|
A-----2-xxxxxxxxxxxxx---2-xxxxxxxxxxxxxx---2-xxxxxxxxxxxxxxx----2-------|
E---3-0-xxxxxxxxxxxxx-3-0-xxxxxxxxxxxxxx-3-0-xxxxxxxxxxxxxxx--3-0-------|

e-----xxxxxxxxxxx----------------------|
B-----xxxxxxxxxxx----------------------|
G-----xxxxxxxxxxx----------------------|
D-----xxxxxxxxxxx----------2-----------|
A-----xxxxxxxxxxx----2-----2-----------|
E-----xxxxxxxxxxx-------3--0-----------|

Chorus

Distortion
x2
play twice
e-----------------------------------------------------------------------|
B-----------------------------------------------------------------------|
G-----------------------------------------------------------------------|
D-----22---2----2---22------2------22---2-----2---2-----------2---------|
A-----22---2----2---22------2------22---2-----2---2--2--------2---------|
E-----00---0----0---00----3-0------00---0-----0---0------3----0---------|

Play this ending second time through (here only, not on above chorus)

e----------------------|
B----------------------|
G---------2------------|
D---------2------------|
A---2-----0------------|
E------3---------------|

Post Chorus

e-----------------------------------------------------------|
B-----------------------------------------------------------|
G-----------------------------------------------------------|
D-----------------------------------------------------------|
A---------------------2---5---------------------------------|
E---0---3---5------------------0----------0---3-------------|


e---------------------------------------------------------------------------|
B-----5-5-5-5-5-5-5-5---5-5-5-5-5-5-5-5---5-5-5-5-5-5-5-5---5-5-5-5-5-5-5-5-|
G-----7-7-7-7-7-7-7-7---6-6-6-6-6-6-6-6---5-5-5-5-5-5-5-5---4-4-4-4-4-4-4-4-|
D---------------------------------------------------------------------------|
A---------------------------------------------------------------------------|
E---------------------------------------------------------------------------|


Solo

alright, here I DO KNOW WHAT TO DO ON THE SOLO! NOT LIKE SOME OTHER guys that say they do!

1.YOU NEED A WAH PEDAL.

2.GET YOUR PICK/WHAMMY BAR (IT DOESN'T MATTER WHICH)

3.RUB IT AGAINST THE STRINGS

thats it, and if you dont have a wah pedal, dont use a pick, use the
whammy bar

end of solo


e-----------------------------------------------------------|
B-----------------------------------------------------------|
G-----------------------------------------------------------|
D-----------------------------------------------------------|
A---------------------2---5---------------------------------|
E---0---3---5------------------0----------0---3-------------|


e---------------------------------------------------------------------------|
B-----5-5-5-5-5-5-5-5---5-5-5-5-5-5-5-5---5-5-5-5-5-5-5-5---5-5-5-5-5-5-5-5-|
G-----7-7-7-7-7-7-7-7---6-6-6-6-6-6-6-6---5-5-5-5-5-5-5-5---4-4-4-4-4-4-4-4-|
D---------------------------------------------------------------------------|
A---------------------------------------------------------------------------|
E---------------------------------------------------------------------------|


Final Chorus
x2 play twice
e-----------------------------------------------------------------------|
B-----------------------------------------------------------------------|
G-----------------------------------------------------------------------|
D-----22---2----2---22------2------22---2-----2---2-----------2---------|
A-----22---2----2---22------2------22---2-----2---2-----------2---------|
E-----00---0----0---00----3-0------00---0-----0---0------3----0---------|

e-----------------------------------------------------------------------|
B-----------------------------------------------------------------------|
G-----------------------------------------------------------------------|
D-----22---2----2---22------2------22---2-----2---2-----------2---------|
A-----22---2----2---22------2------22---2-----2---2--2--------2---------|
E-----00---0----0---00----3-0------00---0-----0---0------3----0---------|


if you are wondering how do that last sound on the end of the song,
on the last chord dive down the whammy bar, and slowly bring it back up

my first tab, so please, try not to kill me
Suggest correction
comments
print report bad tab
13 comments total. Showing first comments.
-1 reply
Shihad Owns! 10 Jan 22, 2007 04:07 PM

Y'know, I've seen this exact same tab ALREADY ON HERE a number of times.

+1 reply
Pedro007 30 Jan 23, 2007 06:56 PM

hey, ya know what, shutup, at least i gave you a five star tab
and i didnt copy it! i friggin typed the whole thing

+1 reply
Pedro007 30 Jan 29, 2007 05:35 PM

so you know what bitch, you can die!

guest
You may want to rate the tab now too:
select rating
Wanna post a correction for this tab? Suggest correction