Oops, an error
Loading. Please wait.

Out Of Exile Bass Tab

version 1
version 1

Whole song

Interactive

2,512 views 6 this week
5 commentsread comments
1 2 3 4 5
not so good
x 9
add to favorites
launch autoscroll
font size
0
reset
guitar tuner
Tab Pro tools
  • play this tab
  • loop segment
  • change instrument
  • show fretboard
  • metronome
Autoscroll
slow
fast
+/-
esc
set tempo
stop
Contributor
----------------------------------------------------------------------------
			     SONG NAME - Band Name
----------------------------------------------------------------------------

Tabbed By : 
e-mail: seanymo500@yahoo.com

Tuning:Drop D

Intro

G|-------------------------------------------------------------------------|
D|-------------------------------------------------------------------------|
A|--------3h5-5-5---------3-0-3-5------------------------------------------|
D|-/12------------3-3-3h5---------3-5-3-3-0--------------------------------|

Verse

G|------------------|
D|-0-0-0-12-12-10---|
A|------------------|
D|------------------|

Chorus                                                             Send my..
G|-----------------------------------------------------------------|-------|
D|-----------------------------------------------------------------|-------|
A|--------3h5-5-5-5---------3-0-3-5-------------3h5-5-5-5----------|-------|
D|--/12-------------3-3-3h5---------3-5-3-3-0-------------3-3-3h5--|-------|

G|---------------|
D|-------------3-|
A|-------0h3h5---|
D|-0h3h5---------|

The guitar soul is basically the intro



Order:
drum and guitar intro
Intro x 4
Verse x 8
Chorus x 2
Verse x 8
Guitar soul
drum and guitar intro
Chorus x 2
Intro x 2
comments
print report bad tab
5 comments total. Showing first comments.
0 reply
bobbynogo wrote on January 12 2006, 10:46 pm

no no no!! It goes like this:


G|-----------------------------------------------------------|
D|------------------3----------------------------------------|
A|--------3h5-5-5-------3----3---3--5---------------------------|
D|-/12------------3---3---5----5-------0--3--5--7--0--------------|

0 reply
bobbynogo wrote on January 12 2006, 10:49 pm

And the verse is like this:


G|----------------------------------------------------|
D|----------------------------------------------------|
A|----------------------------------------------------|
D|--0--12---10--7--10p7--5----------------------------|
It does that a couple times than goes to the chorus some more, but other
than what i said , your tab was great

0 reply
bobbynogo wrote on January 13 2006, 07:17 pm

Wait..sorry its like this


G|----------------------------------------------------|
D|----------------------------------------------------|
A|----------------------------------------------------|
D|--0--12---10---10---7--10p7--3----------------------------|

I want to post or [tab]
guest
You may want to rate the tab now too:
select rating
Please do not post tabs as comments. Select "correction" instead!