Oops, an error
Loading. Please wait.

Out Of Exile Bass Tab

version 2
version 2

Whole song

Interactive

862 views 1 this week
5 commentsread comments
1 2 3 4 5
accurate
x 7
add to favorites
launch autoscroll
font size
0
reset
guitar tuner
Autoscroll
slow
fast
+/-
esc
set tempo
stop
Help us to improve Ultimate-Guitar.com Take our survey!
×
Author
-------------------------------------------------------------------------------
			     Out Of Exile - Audioslave
-------------------------------------------------------------------------------

Tabbed By : bobbynogo	
e-mail: bobbynogo@yahoo.com

Tuning:Drop-D  (D A D G) Low/High
Hi everyone, i decided to tab this song one night when i got back from a band
trip to the gator bowl, and realized that the other tabs for this were crap.
I took it upon myself to figure it out, and i realized it isnt hard, but sounds impressive

here it is, in all its perfection

G|-------------------------------------------------------|
D|-------------3-----------------------------------------|          
A|--3h5-5-5---------3----3-----3---5---------------------|
E|-----------3---3-----5----5--------0---3---5---7---0---|


G|----------------------------------------------------------|
D|-------------3--------------------------------------------|          
A|--3h5-5-5---------3----3-----3---5------------------------|
E|-----------3---3-----5----5--------0---3---5---7---0--12/-|


Repeat This twice and then the song comes in.
Verse
|----------------------------------------------------|
|----------------------------------------------------|
|----------------------------------------------------|
|---0--12---10--10--7--10--7--3----------------------|

Listen to the song and place these riffs where they belong
Goodnight 

| /  slide up
| \  slide down
| h  hammer-on
| p  pull-off
| ~  vibrato
| +  harmonic
| x  Mute note
===============================================================================
Suggest correction
comments
print report bad tab
5 comments total. Showing first comments.
0 reply
harl91 373 wrote on March 10 2006, 06:35 pm

thanks, thats an awesome tab

0 reply
bobbynogo 119 wrote on March 10 2006, 07:53 pm

why thank you, it took me a whole 5-10 minutes to figure it out, and another 3 to type it

0 reply
slavinrage 10 wrote on August 1 2006, 06:03 pm

not all bad except for verse, like i told the other guy, watch live in cuba

guest
You may want to rate the tab now too:
select rating
Please do not post tabs as comments. Select "correction" instead!