Oops, an error
Loading. Please wait.

Out Of Exile Bass Tab

version 3
version 3

Whole song

Interactive

1,845 views 1 this week
2 commentsread comments
1 2 3 4 5
x 8
add to favorites
launch autoscroll
font size
0
reset
guitar tuner
Autoscroll
slow
fast
+/-
esc
set tempo
stop
Help us to improve Ultimate-Guitar.com Take our survey!
×
Author
Difficulty
intermediate
Intro 

G|-------------------|
D|-------------------|
A|-----rest----------|
D|-------------------|

Chorus (Distortion)

G|----------------------------------------------------------------|
D|-----------------3----------------------------------------------|
A|3-5-5-5--5-------------3-------3---3--5--------0----------------|
D|-----------3-------3-----5-------5-------0-3-5---0--(\\\)-------|   (x4)


Verse        
             
G|---7--5-5---5-------------------|
D|0---------7---7---0-------------|
A|----------------8---------------|
D|--------------------------------|


Possible Verse Variation:-

           
G|---7--5-5---5-2-----------------|
D|0---------7-----3-0-------------|
A|--------------------------------|
D|--------------------------------|


Main Chorus (Distortion)

G|----------------------------------------------------------------|
D|-----------------3----------------------------------------------|
A|3-5-5-5--5-------------3-------3---3--5--------0----------------|
D|-----------3-------3-----5-------5-------0-3-5---0--------------|


G|----------------------------------------------------------------|
D|-----------------3---------------------------------------------3|
A|3-5-5-5--5-------------3------------X--X--X--X-X-X-------0-3-5--|
D|-----------3-------3-----5-------------------------0-3-5--------|

Suggest correction
comments
print report bad tab
2 comments total.
-1 reply
4STRINGBOY 140 Apr 23, 2007 03:18 AM

cool.

0 reply
iplaybass5 1,089 Jan 14, 2009 06:13 PM

the chorus is right but the verse is not even close to right and there is no variation

guest
You may want to rate the tab now too:
select rating
Wanna post a correction for this tab? Suggest correction