Oops, an error
Loading. Please wait.

Out Of Exile Bass Tab

version 4
version 4

Whole song

Interactive

7,064 views 12 this week
3 commentsread comments
1 2 3 4 5
x 6
add to favorites
launch autoscroll
font size
0
reset
guitar tuner
Autoscroll
slow
fast
+/-
esc
set tempo
stop
Help us to improve Ultimate-Guitar.com Take our survey!
×
Author
-------------------------------------------------------------------------------
			     OUT OF EXILE - Audioslave
-------------------------------------------------------------------------------

Tabbed By : Kevin

Tuning:Drop D

intro:
0:00
G|-x-x-x-x---x-x-x-x-x--x-x---x-x-x-x---x-x-x-x-x--x-x-x-x-|
D|-x-x-x-x---x-x-x-x-x--x-x---x-x-x-x---x-x-x-x-x--x-x-x-x-|x4
A|-x-x-x-x---x-x-x-x-x--x-x---x-x-x-x---x-x-x-x-x--x-x-x-x-|
D|-x-x-x-x---x-x-x-x-x--x-x---x-x-x-x---x-x-x-x-x--x-x-x-x-|

chorus:
0:23
G|--------------------------------------------|
D|--------------3-----------------------------|x4
A|-3h5-5-5-x--------------3---3--5--------0---|
D|-----------3----3--3-5----5-------0-3-5---0-|

verse:
0:46
G|------7--5---5---5----|
D|-0-0-----------7--7---|x16
A|-------------------85-|
D|----------------------|
                                                          
chorus:                                                   _
1:33                                                       |
G|--------------------------------------------|            |
D|--------------3-----------------------------|            |
A|-3h5-5-5-x--------------3---3--5--------0---|            |
D|-----------3----3--3-5----5-------0-3-5---0-|            |x2
                                                           |
G|------------------------x-x-x--x--x-x-x---------------|  |
D|--------------3---------x-x-x--x--x-x-x-------------3-|  |
A|-3h5-5-5-x--------------x-x-x--x--x-x-x-------0-3-5---|  |
D|-----------3----3--3-5--x-x-x--x--x-x-x-0-3-5---------|  |
                                                          _|
verse:
1:56
G|------7--5---5---5----|
D|-0-0-----------7--7---|x16
A|-------------------85-|
D|----------------------|

chorus:                                                   _
2:42                                                       |
G|--------------------------------------------|            |
D|--------------3-----------------------------|            |
A|-3h5-5-5-x--------------3---3--5--------0---|            |
D|-----------3----3--3-5----5-------0-3-5---0-|            |x2
                                                           |
G|------------------------x-x-x--x--x-x-x---------------|  |
D|--------------3---------x-x-x--x--x-x-x-------------3-|  |
A|-3h5-5-5-x--------------x-x-x--x--x-x-x-------0-3-5---|  |
D|-----------3----3--3-5--x-x-x--x--x-x-x-0-3-5---------|  |
                                                          _|
solo:
3:06
G|-------------------------------------------|  
D|--------------3----------------------------|x3
A|-3h5-5-5-x--------------3---3-5--------0---|   
D|-----------3----3--3-5----5------0-3-5---0-| 

G|-x-x-x--x--x-x-x---------------|
D|-x-x-x--x--x-x-x-------------3-|
A|-x-x-x--x--x-x-x-------0-3-5---|
D|-x-x-x--x--x-x-x-0-3-5---------|

re-intro:
3:29
G|-x-x-x-x---x-x-x-x-x--x-x---x-x-x-x---x-x-x-x-x--x-x-x-x-|
D|-x-x-x-x---x-x-x-x-x--x-x---x-x-x-x---x-x-x-x-x--x-x-x-x-|x4
A|-x-x-x-x---x-x-x-x-x--x-x---x-x-x-x---x-x-x-x-x--x-x-x-x-|
D|-x-x-x-x---x-x-x-x-x--x-x---x-x-x-x---x-x-x-x-x--x-x-x-x-|
                                                          
chorus:                                                   _  
3:52                                                       |
G|--------------------------------------------|            |
D|--------------3-----------------------------|            |
A|-3h5-5-5-x--------------3---3--5--------0---|            |
D|-----------3----3--3-5----5-------0-3-5---0-|            |x2
                                                           |
G|------------------------x-x-x--x--x-x-x---------------|  |
D|--------------3---------x-x-x--x--x-x-x-------------3-|  |
A|-3h5-5-5-x--------------x-x-x--x--x-x-x-------0-3-5---|  |
D|-----------3----3--3-5--x-x-x--x--x-x-x-0-3-5---------|  |
                                                          _|
G|--------------------------------------------|
D|--------------3-----------------------------|x3
A|-3h5-5-5-x--------------3---3--5--------0---|
D|-----------3----3--3-5----5-------0-3-5---0-|

end:
0:12
G|-x-x-x-x---x-x-x-x-x--x-x-|
D|-x-x-x-x---x-x-x-x-x--x-x-|
A|-x-x-x-x---x-x-x-x-x--x-x-|
D|-x-x-x-x---x-x-x-x-x--x-x-|

| /  slide up
| \  slide down
| h  hammer-on
| p  pull-off
| ~  vibrato
| +  harmonic
| x  Mute note
===============================================================================
Suggest correction
comments
print report bad tab
3 comments total.
0 reply
afromonkeyR0X 393 Jan 27, 2009 12:39 AM

You have:
verse:
0:46
G|------7--5---7p5--|
D|-0-0------------7-|x16
A|------------------|
D|------------------|

I think it should be:
verse:
0:46
G|------7--5---5--5-------|
D|-0-0-----------7--7-----|x16
A|-------------------85---|
D|------------------------|

With those last 3 or so notes played kinda fast.

0 reply
iplaybass5 1,089 Jan 27, 2009 12:34 PM

i'll listen fer that but im not sure if ill change it yet

0 reply
iplaybass5 1,089 Jan 27, 2009 07:57 PM

ok i hear it now so ill change it thanks

guest
You may want to rate the tab now too:
select rating
Wanna post a correction for this tab? Suggest correction