Oops, an error
Loading. Please wait.

Revelations Tab

version 1
version 1

Album

Solo

Whole song

Interactive

10,336 views 6 this week
4 commentsread comments
1 2 3 4 5
worth learning
x 5
add to favorites
launch autoscroll
font size
0
reset
how to read this tab
guitar tuner
Tab Pro tools
  • play this tab
  • loop segment
  • change instrument
  • show fretboard
  • metronome
Autoscroll
slow
fast
+/-
esc
set tempo
stop
Difficulty
intermediate
AUDIOSLAVE-REVELATIONS ALBUM.

IT'S NOT MINE







-------------------------------------------------------------------------------
			     REVELATIONS - Audioslave
-------------------------------------------------------------------------------
Tabbed by: jacobmcfarland
Email: jacobmcfarland@gmail.com

Tuning: Drop D (DADGBE)

This is my first tab, so sorry if it's sloppy. I'm not positive if the intro is correct, 
I'm pretty sure I have all the other parts down. Let me know of any corrections that 
be needed. Enjoy!

-Intro

E|---------------------------------------------------------------|
B|-----------------------------3------------------------------3--|
G|------------7--------------2---2-------------7--------------2--|
D|-----10---7---7--------5-0-------0-----7---7---7-------2-4--0--|
A|---8----8-------8----3---------------5---8-------8---0---------|
D|-8-----------------3---------------5---------------0-----------|

E|---------------------------------------|
B|-----------------------------3------3--|
G|------------7--------------2---2----2--|
D|-----10---7---7--------5-0-------0--0--|
A|---8----8-------8----3--------------0--|
D|-8-----------------3----------------0--|

-Main Riff

E|-------------------------------------------------------|
B|-------------------------------------------------------|
G|-------------------------------------------------------|4x
D|-0-0-x-x-----------------------------------------------|
A|-0-0-x-x--8--5------3-3-3-3---0-0-0-0----3-3-3-3-------|
D|-0-0-x-x-------------------------------------------3b--|


-Verse ["You know what to do..."]

E|------------------------|   |------------------|
B|------------------------|3x |------------------|
G|------------------------|   |------------------|
D|------------------------|   |-7-7-7-7----------|
A|-3/5-5-3-5--------5-----|   |-8-8-8-8-7-7-7-7--|
D|------------0-0-0---0---|   |------------------|

E|------------------------|   |------------------|
B|------------------------|3x |------------------|
G|------------------------|   |------------------|
D|------------------------|   |-7-7-7-7----------|
A|-3/5-5-3-5--------5-----|   |-8-8-8-8-7-7-7-7--|
D|------------0-0-0---0---|   |------------------|

E|------------------------|
B|------------------------|4x
G|------------------------|
D|------------------------|
A|-3/5-5-3-5--------5-----|
D|------------0-0-0---0---|

-Chorus ["It's such a shame.."]

E|------------------------------------------------------------------|
B|------------------------------------------------------------------|
G|------------------------------------------------------------------|
D|-7-7-7-7-5-5-5-5-2-2-2-2-3-3-3-3-7-7-7-7-5-5-5-5-4-4-4-4-4-4-4-4--|
A|-8-8-8-8-7-7-7-7-3-3-3-3-5-5-5-5-8-8-8-8-7-7-7-7-5-5-5-5-5-5-5-5--|
D|------------------------------------------------------------------|

E|----------------------------------------------------------------------|
B|----------------------------------------------------------------------|
G|----------------------------------------------------------------------|
D|-7-7-7-7-5-5-5-5-7-7-7-7-10-10-10-10-7-7-7-7-5-5-5-5-4-4-4-4-4-4-4-4--|
A|-8-8-8-8-7-7-7-7-8-8-8-8-8--8--8--8--8-8-8-8-7-7-7-7-5-5-5-5-5-5-5-5--|
D|----------------------------------------------------------------------|

E|---------------------------------------------------------------|
B|---------------------------------------------------------------|
G|-7-7-7-5-7-7-7--7-7-7-5-7-7-7--7-7-7-5-7-7-7--7-7-7-5-7-7-7\---|
D|-7-7-7-5-5-7-7--7-7-7-5-7-7-7--7-7-7-5-7-7-7--7-7-7-5-7-7-7\---|
A|-5-5-5-3-5-5-5--5-5-5-3-5-5-5--5-5-5-3-5-5-5--5-5-5-3-5-5-5\---|
D|---------------------------------------------------------------|

[Main Riff] 2x
[Verse]

-Chorus 2

E|------------------------------------------------------------------|
B|------------------------------------------------------------------|
G|------------------------------------------------------------------|
D|-7-7-7-7-5-5-5-5-2-2-2-2-3-3-3-3-7-7-7-7-5-5-5-5-4-4-4-4-4-4-4-4--|
A|-8-8-8-8-7-7-7-7-3-3-3-3-5-5-5-5-8-8-8-8-7-7-7-7-5-5-5-5-5-5-5-5--|
D|------------------------------------------------------------------|

E|----------------------------------------------------------------------|
B|----------------------------------------------------------------------|
G|----------------------------------------------------------------------|
D|-7-7-7-7-5-5-5-5-7-7-7-7-10-10-10-10-7-7-7-7-5-5-5-5-4-4-4-4-4-4-4-4--|
A|-8-8-8-8-7-7-7-7-8-8-8-8-8--8--8--8--8-8-8-8-7-7-7-7-5-5-5-5-5-5-5-5--|
D|----------------------------------------------------------------------|

-Solo

- "Good luck.. all I know is that there are overlapping parts, and lots of toggle switch stuff."

-End Solo

E|-------------------------------------------------------------|
B|-------------------------------------------------------------|
G|-7-7-7-5-7-7-7--7-7-7-5-7-7-7--7-7-7-5-7-7-7--7-7-7-5-7-7-7--|
D|-7-7-7-5-5-7-7--7-7-7-5-7-7-7--7-7-7-5-7-7-7--7-7-7-5-7-7-7--|
A|-5-5-5-3-5-5-5--5-5-5-3-5-5-5--5-5-5-3-5-5-5--5-5-5-3-5-5-5--|
D|-------------------------------------------------------------|

-Bridge ["I am haunted.."]

E|---------------------------------------------------------------|
B|-----------------------------3------------------------------3--|
G|------------7--------------2---2-------------7--------------2--| 4x
D|-----10---7---7--------5-0-------0-----7---7---7-------2-4--0--|
A|---8----8-------8----3---------------5---8-------8---0---------|
D|-8-----------------3---------------5---------------0-----------|

E|------------------------------------------------------------------|
B|------------------------------------------------------------------|
G|------------------------------------------------------------------|2x
D|-7-7-7-7-5-5-5-5-2-2-2-2-3-3-3-3-7-7-7-7-5-5-5-5-4-4-4-4-4-4-4-4--|
A|-8-8-8-8-7-7-7-7-3-3-3-3-5-5-5-5-8-8-8-8-7-7-7-7-5-5-5-5-5-5-5-5--|
D|------------------------------------------------------------------|

[Chorus]

-Ending

E|-------------------------------------------------------------|
B|-------------------------------------------------------------|
G|-7-7-7-5-7-7-7--7-7-7-5-7-7-7--7-7-7-5-7-7-7--7-7-7-5-7-7-7--|
D|-7-7-7-5-5-7-7--7-7-7-5-7-7-7--7-7-7-5-7-7-7--7-7-7-5-7-7-7--|
A|-5-5-5-3-5-5-5--5-5-5-3-5-5-5--5-5-5-3-5-5-5--5-5-5-3-5-5-5--|
D|-------------------------------------------------------------|



















Artist: Audioslave
Track: One and the Same
Album: Revelations
Year: 2006

Legend

+ = Forward Dip on the wah wah
- = Backward "-"
v = vibrato
/\ = Slides up/down
h = hammer on
p = pull off

Standard Tuning EADGBE

Intro

E|--------------------------------------------------------|
B|--------------------------------------------------------|
G|--------16----16----xxx----16----16----16----xxx--------|
D|--------x-----x-----xxx----x-----x-----x-----xxx--------|
A|--------14----14----xxx----14----14----14----xxx--------|
E|--------------------------------------------------------|
          +  -   +  -  +  -  +  -  +  -  +  -   +

E|--------------------------------------------------------|
B|--------------------------------------------------------|
G|--16----16----16----xxx----16----16----16----xxx--------|
D|--x-----x-----x-----xxx----x-----x-----x-----xxx--------|
A|--14----14----14----xxx----14----14----14----xxx--------|
E|--------------------------------------------------------|
    +  -  +  -   +  -  +  -  +  -  +  -  +  -   +

E|--------|
B|--------|
G|--16----|
D|--x-----|
A|--14----|
E|--------|
    +  -  


0:08
E|--------------------------------------------------------|
B|--------------------------------------------------------|
G|--------7v----------------------------------------------|
D|------9----9-7-9--9-9-7---7v----------------------------|
A|------------------------9-----9-7-9--7\5-7p5------------|
E|--7-7----------------------------------------7p5--------|

E|--------------------------------------------------------|
B|--------------------------------------------------------|
G|--------7v----------------------------------------------|
D|------9----9-7-9--9-9-7---7v----------------------------|
A|------------------------9-----9-7-9--7\5-7p5------------|
E|--7-7----------------------------------------7p5--------|

E|--------------------------------------------------------|
B|--------------------------------------------------------|
G|--------7v----------------------------------------------|
D|------9----9-7-9--9-9-7---7v----------------------------|
A|------------------------9-----9-7-9--7\5-7p5------------|
E|--7-7----------------------------------------7p5--------|

E|--------------------------------------------------------|
B|--------------------------------------------------------|
G|--------7v----------------------------------------------|
D|------9----9-7-9--9-9-7---7v----------------------------|
A|------------------------9-----9-7-9--7\5-7p5------------|
E|--7-7------------------------------------------into..---|


0:25

E|--------------------------------------------------------|
B|--------------------------------------------------------|
G|--------------------------------------------------------|
D|--------------------------------------------------------|
A|---9--x-7/9--x9x9\7--9--x-7/9--x9x9\7-------------------|
E|---7--x-5/7--x7x7\5--7--x-5/7--x7x7\5-------------------|

E|--------------------------------------------------------|
B|--------------------------------------------------------|
G|--------------------------------------------------------|
D|--------------------------7-7-----7-7-----7v------------|
A|---9--x-7/9--x9x9\7---7h9-----7h9-----7h9---------------|
E|---7--x-5/7--x7x7\5-------------------------------------|


0:34
E|--------------------------------------------------------|
B|--------------------------------------------------------|
G|--------------------------------------------------------|
D|--------------------------------------------------------|
A|---9--x-7/9--x9x9\7--9--x-7/9--x9x9\7-------------------|
E|---7--x-5/7--x7x7\5--7--x-5/7--x7x7\5-------------------|

E|--------------------------------------------------------|
B|--------------------------------------------------------|
G|--------------------------------------------------------|
D|--------------------------7-7-----7-7-----7v------------|
A|---9--x-7/9--x9x9\7---7h9-----7h9-----7h9---------------|
E|---7--x-5/7--x7x7\5-------------------------------------|


0:43
E|--------------------------------------------------------|
B|--------------------------------------------------------|
G|--------------------------------------------------------|
D|--------------------------------------------------------|
A|---9--x-7/9--x9x9\7--9--x-7/9--x9x9\7-------------------|
E|---7--x-5/7--x7x7\5--7--x-5/7--x7x7\5-------------------|

E|--------------------------------------------------------|
B|--------------------------------------------------------|
G|--------------------------------------------------------|
D|--------------------------7-7-----7-7-----7v------------|
A|---9--x-7/9--x9x9\7---7h9-----7h9-----7h9---------------|
E|---7--x-5/7--x7x7\5-------------------------------------|


0:52
E|--------------------------------------------------------|
B|--------------------------------------------------------|
G|--------16----16----xxx----16----16----16----xxx--------|
D|--------x-----x-----xxx----x-----x-----x-----xxx--------|
A|--------14----14----xxx----14----14----14----xxx--------|
E|--------------------------------------------------------|
          +  -   +  -  +  -  +  -  +  -  +  -   +

E|--------------------------------------------------------|
B|--------------------------------------------------------|
G|--16----16----16----xxx----16----16----16----xxx--------|
D|--x-----x-----x-----xxx----x-----x-----x-----xxx--------|
A|--14----14----14----xxx----14----14----14----xxx--------|
E|--------------------------------------------------------|
    +  -  +  -   +  -  +  -  +  -  +  -  +  -   +

E|--------------------------------------------------------|
B|--------------------------------------------------------|
G|--16----16----16----xxx----16----16----16----xxx--------|
D|--x-----x-----x-----xxx----x-----x-----x-----xxx--------|
A|--14----14----14----xxx----14----14----14----xxx--------|
E|--------------------------------------------------------|
    +  -  +  -   +  -  +  -  +  -  +  -  +  -   +

E|--------------------------------------------------------|
B|--------------------------------------------------------|
G|--16----16----16----xxx----16----16----16----xxx--------|
D|--x-----x-----x-----xxx----x-----x-----x-----xxx--------|
A|--14----14----14----xxx----14----14----14----xxx--------|
E|--------------------------------------------------------|
    +  -  +  -   +  -  +  -  +  -  +  -  +  -   +

E|--------|
B|--------|
G|--16----|
D|--x-----|
A|--14----|
E|--------|
    +  -  


1:10
E|--------------------------------------------------------|
B|--------------------------------------------------------|
G|--------7v----------------------------------------------|
D|------9----9-7-9--9-9-7---7v----------------------------|
A|------------------------9-----9-7-9--7\5-7p5------------|
E|--7-7----------------------------------------7p5--------|


E|--------------------------------------------------------|
B|--------------------------------------------------------|
G|--------7v----------------------------------------------|
D|------9----9-7-9--9-9-7---7v----------------------------|
A|------------------------9-----9-7-9--7\5-7p5------------|
E|--7-7----------------------------------------7p5--------|


1:18
E|--------------------------------------------------------|
B|--------------------------------------------------------|
G|--------------------------------------------------------|
D|--------------------------------------------------------|
A|---9--x-7/9--x9x9\7--9--x-7/9--x9x9\7-------------------|
E|---7--x-5/7--x7x7\5--7--x-5/7--x7x7\5-------------------|

E|--------------------------------------------------------|
B|--------------------------------------------------------|
G|--------------------------------------------------------|
D|--------------------------7-7-----7-7-----7v------------|
A|---9--x-7/9--x9x9\7---7h9-----7h9-----7h9---------------|
E|---7--x-5/7--x7x7\5-------------------------------------|


1:27
E|--------------------------------------------------------|
B|--------------------------------------------------------|
G|--------------------------------------------------------|
D|--------------------------------------------------------|
A|---9--x-7/9--x9x9\7--9--x-7/9--x9x9\7-------------------|
E|---7--x-5/7--x7x7\5--7--x-5/7--x7x7\5-------------------|

E|--------------------------------------------------------|
B|--------------------------------------------------------|
G|--------------------------------------------------------|
D|--------------------------7-7-----7-7-----7v------------|
A|---9--x-7/9--x9x9\7---7h9-----7h9-----7h9---------------|
E|---7--x-5/7--x7x7\5-------------------------------------|


1:36
E|--------------------------------------------------------|
B|--------------------------------------------------------|
G|--------------------------------------------------------|
D|--------------------------------------------------------|
A|---9--x-7/9--x9x9\7--9--x-7/9--x9x9\7-------------------|
E|---7--x-5/7--x7x7\5--7--x-5/7--x7x7\5-------------------|

E|--------------------------------------------------------|
B|--------------------------------------------------------|
G|--------------------------------------------------------|
D|--------------------------7-7-----7-7-----7v------------|
A|---9--x-7/9--x9x9\7---7h9-----7h9-----7h9---------------|
E|---7--x-5/7--x7x7\5-------------------------------------|


1:44
E|--------------------------------------------------------|
B|--------------------------------------------------------|
G|--------16----16----xxx----16----16----16----xxx--------|
D|--------x-----x-----xxx----x-----x-----x-----xxx--------|
A|--------14----14----xxx----14----14----14----xxx--------|
E|--------------------------------------------------------|
          +  -   +  -  +  -  +  -  +  -  +  -   +

E|--------------------------------------------------------|
B|--------------------------------------------------------|
G|--16----16----16----xxx----16----16----16----xxx--------|
D|--x-----x-----x-----xxx----x-----x-----x-----xxx--------|
A|--14----14----14----xxx----14----14----14----xxx--------|
E|--------------------------------------------------------|
    +  -  +  -   +  -  +  -  +  -  +  -  +  -   +

E|--------------------------------------------------------|
B|--------------------------------------------------------|
G|--16----16----16----xxx----16----16----16----xxx--------|
D|--x-----x-----x-----xxx----x-----x-----x-----xxx--------|
A|--14----14----14----xxx----14----14----14----xxx--------|
E|--------------------------------------------------------|
    +  -  +  -   +  -  +  -  +  -  +  -  +  -   +

E|--------------------------------------------------------|
B|--------------------------------------------------------|
G|--16----16----16----xxx----16----16----16----xxx--------|
D|--x-----x-----x-----xxx----x-----x-----x-----xxx--------|
A|--14----14----14----xxx----14----14----14----xxx--------|
E|--------------------------------------------------------|
    +  -  +  -   +  -  +  -  +  -  +  -  +  -   +

E|--------|
B|--------|
G|--16----|
D|--x-----|
A|--14----|
E|--------|
    +  -  


2:02
with tremolopicking

E|--------------------------------------------------------|
B|--------------------------------------------------------|
G|--16--------------16------------------------------------|
D|-----16-12-----------16-12------------------------------|
A|-----------14--------------14---------------------------|
E|--------------------------------------------------------|


E|--------------------------------------------------------|
B|------------------------------------15h17p15------------|
G|--16-18-19-21v-18-19-18-14h16v---16----------16p14------|
D|--------------------------------------------------------|
A|--------------------------------------------------------|
E|--------------------------------------------------------|

E|--------------------------------------------------------|
B|--------------------------------------------------------|
G|-------some false(?) notes that i can't grasp-----------|
D|--------------------------------------------------------|
A|--------------------------------------------------------|
E|--------------------------------------------------------|
               quickly
E|--------------------------------------------------------|
B|-----15------17b19-17b19-15-----------------------------|
G|---16--16p14---------------16p14h16--16p14--------------|
D|--------------------------------------------------------|
A|--------------------------------------------------------|
E|--------------------------------------------------------|


E|--------------------------------------------------------|
B|-----15------17b19-17b19--17-19-15----------------------|
G|---16--16p14-----------------------16-------------------|
D|----------------------------------------14h16-----------|
A|--------------------------------------------------------|
E|--------------------------------------------------------|

2:22
E|--14p12p10-----------------14p12p10---------------------|
B|----------14p12p10-----------------14p12p102------------|
G|--------------------------------------------------------|
D|--------------------------------------------------------|
A|--------------------------------------------------------|
E|--------------------------------------------------------|

E|--14p12p10-----------------14p12p10---------------------|
B|----------14p12p10-----------------14p12p10p2------------|
G|--------------------------------------------------------|
D|--------------------------------------------------------|
A|--------------------------------------------------------|
E|--------------------------------------------------------|

E|--14p12p10-----------------14p12p10---------------------|
B|----------14p12p10-----------------14p12p10p2------------|
G|--------------------------------------------------------|
D|--------------------------------------------------------|
A|--------------------------------------------------------|
E|--------------------------------------------------------|

E|--14p12p10-----------------14p12p10---------------------|
B|----------14p12p10-----------------14p12p10p2------------|
G|--------------------------------------------------------|
D|--------------------------------------------------------|
A|--------------------------------------------------------|
E|--------------------------------------------------------|

2:26
E|---15p14p12-------------15p14p12------------------------|
B|-----------15p14p12-------------15p14p12----------------|
G|--------------------------------------------------------|
D|--------------------------------------------------------|
A|--------------------------------------------------------|
E|--------------------------------------------------------|

E|---15p14p12-------------15p14p12------------------------|
B|-----------15p14p12-------------15p14p12----------------|
G|--------------------------------------------------------|
D|--------------------------------------------------------|
A|--------------------------------------------------------|
E|--------------------------------------------------------|

E|---15p14p12-------------15p14p12------------------------|
B|-----------15p14p12-------------15p14p12----------------|
G|--------------------------------------------------------|
D|--------------------------------------------------------|
A|--------------------------------------------------------|
E|--------------------------------------------------------|

E|---15p14p12-------------15p14p12------------------------|
B|-----------15p14p12-------------15p14p12----------------|
G|--------------------------------------------------------|
D|--------------------------------------------------------|
A|--------------------------------------------------------|
E|--------------------------------------------------------|

2:30
E|--17p15p14--------------17p15p14------------------------|
B|----------17p15p14--------------17p15p14----------------|
G|--------------------------------------------------------|
D|--------------------------------------------------------|
A|--------------------------------------------------------|
E|--------------------------------------------------------|

E|--17p15p14--------------17p15p14------------------------|
B|----------17p15p14--------------17p15p14----------------|
G|--------------------------------------------------------|
D|--------------------------------------------------------|
A|--------------------------------------------------------|
E|--------------------------------------------------------|

E|--17p15p14--------------17p15p14------------------------|
B|----------17p15p14--------------17p15p14----------------|
G|--------------------------------------------------------|
D|--------------------------------------------------------|
A|--------------------------------------------------------|
E|--------------------------------------------------------|

E|--17p15p14--------------17p15p14------------------------|
B|----------17p15p14--------------17p15p14----------------|
G|--------------------------------------------------------|
D|--------------------------------------------------------|
A|--------------------------------------------------------|
E|--------------------------------------------------------|

2:34
E|--------------------------------------------------------|
B|--------------------------------------------------------|
G|------some false(?) notes that i can't grasp-----16v----|
D|--------------------------------------------------------|
A|--------------------------------------------------------|
E|--------------------------------------------------------|


2:46
E|-------|
B|---xx--|
G|---xx--|
D|---xx--|
A|-------|
E|-------|


2:56
E|--------------------------------------------------------|
B|--------------------------------------------------------|
G|--------16----16----xxx----16----16----16----xxx--------|
D|--------x-----x-----xxx----x-----x-----x-----xxx--------|
A|--------14----14----xxx----14----14----14----xxx--------|
E|--------------------------------------------------------|
          +  -   +  -  +  -  +  -  +  -  +  -   +

E|--------------------------------------------------------|
B|--------------------------------------------------------|
G|--16----16----16----xxx----16----16----16----xxx--------|
D|--x-----x-----x-----xxx----x-----x-----x-----xxx--------|
A|--14----14----14----xxx----14----14----14----xxx--------|
E|--------------------------------------------------------|
    +  -  +  -   +  -  +  -  +  -  +  -  +  -   +

E|--------------------------------------------------------|
B|--------------------------------------------------------|
G|--16----16----16----xxx----16----16----16----xxx--------|
D|--x-----x-----x-----xxx----x-----x-----x-----xxx--------|
A|--14----14----14----xxx----14----14----14----xxx--------|
E|--------------------------------------------------------|
    +  -  +  -   +  -  +  -  +  -  +  -  +  -   +

E|--------------------------------------------------------|
B|--------------------------------------------------------|
G|--16----16----16----xxx----16----16----16----xxx--------|
D|--x-----x-----x-----xxx----x-----x-----x-----xxx--------|
A|--14----14----14----xxx----14----14----14----xxx--------|
E|--------------------------------------------------------|
    +  -  +  -   +  -  +  -  +  -  +  -  +  -   +

E|--------|
B|--------|
G|--16----|
D|--x-----|
A|--14----|
E|--------|
    +  -  


3:13

E|--------------------------------------------------------|
B|--------------------------------------------------------|
G|--------7v----------------------------------------------|
D|------9----9-7-9--9-9-7---7v----------------------------|
A|------------------------9-----9-7-9--7\5-7p5------------|
E|--7-7----------------------------------------7p5--------|


E|--------------------------------------------------------|
B|--------------------------------------------------------|
G|--------7v----------------------------------------------|
D|------9----9-7-9--9-9-7---7v----------------------------|
A|------------------------9-----9-7-9--7\5-7p5------------|
E|--7-7----------------------------------------7p5--------|

E|--------------------------------------------------------|
B|--------------------------------------------------------|
G|--------7v----------------------------------------------|
D|------9----9-7-9--9-9-7---7v----------------------------|
A|------------------------9-----9-7-9--7\5-7p5------------|
E|--7-7----------------------------------------7p5--------|


E|--------------------------------------------------------|
B|--------------------------------------------------------|
G|--------7v----------------------------------------------|
D|------9----9-7-9--9-9-7---7v----------------------------|
A|------------------------9-----9-7-9--7\5-7p5------------|
E|--7-7----------------------------------------7p5--------|



E|--end on something like-|
B|------------------------|
G|---14\------------------|
D|---16\------------------|
A|---14\------------------|
E|------------------------|





















Song : Sound Of A Gun
Artist : Audioslave
Album : Revelations

 ---
Intro
 ---
[code]
|--15--15--15--15--19--19--19--19--17--17--17--17--14--14--14--14-----|
B|----17--17--17--17--17--17--17--17--17--17--17--17--15--15--15--15--|
G|--------------------------------------------------------------------|
D|--------------------------------------------------------------------|
A|--------------------------------------------------------------------|
D|--------------------------------------------------------------------|

e|--15--15--15--15--17--19--19--19--19--19--19-------------------------------------------------|
B|----17--17--17--17--17--17--17--17--17--17--17-----------------------------------------------|
G|---------------------------------------------------------------------------------------------|
D|---------------------------------------------------------------------------------------------|
A|---------------------------------------------------------------------------------------------|

[/code]

 ---
Main Riff After Intro
 ---
[code]
e|--------------------------------------------------------------------------------------------|
B|--------------------------------------------------------------------------------------------|
G|--------------------------------------------------------------------------------------------|
D|--------------0h2---0h2----x-x----2-----5-----7----x-x----0h2--0h2----x-x----2-----5-----7--|
A|---5h7--5h7---0h2---0h2----x-x----2-----5-----7----x-x----0h2--0h2----x-x----2-----5-----7--|

Play through twice [/code]


 ---
Verse Chords
 ---
E , D , C , D        - X 3
E,  D , C , A, E    - X 1


 ---
Chorus
 ---
[code]
e|--------------------------------------------------------|
B|--------------------------------------------------------|
G|--------------------------------------------------------|
D|---0h2--0h2----0h2---0h2----x-x----2----5-----7---------|
A|----------------------0h2---0h2----x-x----2----5-----7--|
D|----------------------0h2---0h2----x-x----2----5-----7--|/code] Play three times
[code]
e|------------------------------------------|
B|------------------------------------------|
G|------------------------------------------|
D|---x-x---0h2---0h2---x-x----2----5-----7--|
A|---x-x---0h2---0h2---x-x----2----5-----7--|
D|---x-x---0h2---0h2---x-x----2----5-----7--|/code] Play Once
















Until We Fall- Audislave- Revelations- 2006-----------------------|
------------------------------------------------------------------|
Tabbed by: Nick Cottrell
Email: Cotchry@hotmail.com


Tuning:EADGBe
 	(Listen to song for strum pattern.)

	This is played on an acoustic (Cornell) and an electric (Morello).

		Acoustic Verse

			Intro/Verse     On the 3rd time of the first verse, play this (G).
					Then play this at the end of each verse
e|----0--------0--------0-------------            e|-3-           ----|
B|----1--------1--------1-----------1-            B|-3-        -1-----|
G|----0----0---2--------2-----------2-<=======    G|-0- Instead of-2--|
D|----2-0h2----2--0h2-3-3-3-3h2-0---2-            D|-0-        -2-----|
A|--3-3------0-0------------------0---            A|-2-        -------|
E|------------------------------------          E|-3-             ----|


		       1st Chorus (This part is Questionable.)
			Electric
e|------------------------------------------------------------------|
B|---3---3---3---3----3---3---3------------3---3---3---3----3---3---|
G|--2-2-2-2-2-2-2-2--2-2-2-2-2-2----------2-2-2-2-2-2-2-2--2-2-2--3-|
D|-0---3------------0---3----------------0---3------------0---3---3-|
A|-------------2-----------------2/3-2/3-------------2------------1-|
E|------------------------------------------------------------------|

		Acoustic
e|-2-2--------------|
B|-3-3---3---3---3--|
G|-2-2--2-2-2-2-2-2-|
D|-----3------------| etc...
A|-------------2----|
E|------------------|

The rest of the choruses are the same but with distrtion and an D being played on electric also.

	SOLO (Electric)

e|-----------------------------------------------------|
B|-5h3---3--------3-5h3---3/5---------3-5-5b---3-------|
G|-----5----0h2-5-------5-----5-0h2-5--------5---4~~~~-|
D|-----------------------------------------------------|
A|-----------------------------------------------------|
E|-----------------------------------------------------|

	Bridge

e|-------------------------------------|
B|-------------------------------------|
G|---------------3-5-------------------|
D|-555-5-3---3-5-----555-5-3---3-5-3-5-|	REPEAT 2X
A|-555-----5---------555-----5---------|
E|-333---------------333---------------|

	Bridge 2

e|-0---0----------|
B|--3---3---------|
G|----------------|
D|------- Repeat--| 8X
A|----------------|
E|----------------|

	End song on this:

e|-3-
B|-4-
G|-5-
D|-0-
A|---
E|---






Until we fall

standard tuning

When C* is played it is mostly played as shown: a-0-2-3, then strum it.


intro		C  Am  Cadd9 Am   C* Am  Cadd9 G

verse		C  Am  Cadd9 Am   C  Am  Cadd9 G   

Chorus          D  Cadd9 Em7 G  


C*	     Am             Fmaj7        Am
I walk the streets where I regret, ah-ah-ah
C*	 Am               Fmaj7          G      C
I stood along and watched myself fall apart 
             Am            Fmaj7         Am
And said the voices in my head, ah-ah-ah
C* 	     Am		    Fmaj7          G     G7  D
Slipped through the chain link of a broken heart         
             Cadd9  Em7  G     D
And when I'm tired of feeling black 
           Cadd9 Em7    G     D
Spread the wings upon you're back 
        Cadd9 Em7  G    D
Take us high above it all 
	 Cadd9	      G	        C     Am         Fmaj7      Am
Stroke you're feathers 'till we fall back down again, ah-ah-ah 

C* Am Fmaj7 Am

C*	     Am             Fmaj7        Am
But everything that sounded good, ah-ah-ah
C*	     Am     Fmaj7          G      G7   D
I understand that I'll be misunderstood 
	 Cadd9   Em7   G      D
And when I'm tired of feeling black 
         Cadd9   Em7  G	      D
Spread the wings upon you're back 
       Cadd9 Em7 G      D
Take us high above it all 
       Bb     C        G            Bb    C
Stroke you're feathers 'till we fall 
       G    Bb   C        G     Bb    C
Until we fall,      until we fall back down again
G      Bb   C       D       D
Yeah, back down again
Bb     Cadd9      G       D
What do you feel before you think? 
What do you see before you blink? 
Who do you battle in you're dreams? 
                             G                  D
Who strokes you're feathers 'till you scream? 
         Cadd9   Em7   G       D
And when I'm tired of feeling black 
Spread the wings upon you're back 
Take us high above it all
                           G          Bb   C 
And stroke you're feathers 'till we fall
      G       Bb  C       G     Bb C   G  Bb    C   
Until we fall,    until we fall    back down again 
Bb   C       D 
back down again


                ebgdae
G7              100023
Cadd9		03023X
Fmaj7		01230X
Bb		13331X
Em7             030020
G               030023
D               2320XX
C               01023X
Am		01220X


















Artist: Audioslave
Song: Original Fire
Album: Revelations
Intro

E|-----------------------------------------------------------------|
B|-5-5-5-5-5-5-5-5-5-5-5-5-5-5-5-5-5-5-5-5-5-5-5-5-5-5-5-5-5-5-5-5-|
G|-7-7-7-7-7-7-7-7-6-6-6-6-6-6-6-6-5-5-5-5-5-5-5-5-4-4-4-4-4-4-4-4-|
D|-----------------------------------------------------------------|
A|-----------------------------------------------------------------|
E|-----------------------------------------------------------------|

E|---------------------------------------------------------------|
B|-5-5-5-5-5-5-5-5-5-5-5-5-5-5-5-5-5-5-5-5-5-5-5-5-5-5-5-5-------|
G|-7-7-7-7-7-7-7-7-6-6-6-6-6-6-6-6-5-5-5-5-5-5-5-5-4-4-4-4-------|
D|---------------------------------------------------------------|
A|----------------------------------------------------------2----|
E|------------------------------------------------------------3b-|

Verse

E|-----------------------------------------------|
B|-----------------------------------------------|
G|-----------------------------------------------|
D|-2----------2----------2----------2----------2-|
A|-2----------2----------2----------2----------2-|
E|-0-------3b-0-------3b-0-------3b-0-------3b-0-|

E|-X-X-X-X-X-X-X-X-X-X-X-X-X-X------X-X-X-X-X-X-X-X-X-X-X-X-X-X------|
B|-X-X-X-X-X-X-X-X-X-X-X-X-X-X------X-X-X-X-X-X-X-X-X-X-X-X-X-X------|
G|-X-X-X-X-X-X-X-X-X-X-X-X-X-X------X-X-X-X-X-X-X-X-X-X-X-X-X-X------|
D|-X-X-X-X-X-X-X-X-X-X-X-X-X-X----2-X-X-X-X-X-X-X-X-X-X-X-X-X-X----2-|
A|-X-X-X-X-X-X-X-X-X-X-X-X-X-X----2-X-X-X-X-X-X-X-X-X-X-X-X-X-X----2-|
E|-X-X-X-X-X-X-X-X-X-X-X-X-X-X-3b-0-X-X-X-X-X-X-X-X-X-X-X-X-X-X-3b-0-|

E|-X-X-X-X-X-X-X-X-X-X-X-X-X-X------X-X-X-X-X-X-X-X-X-X-X-X---------|
B|-X-X-X-X-X-X-X-X-X-X-X-X-X-X------X-X-X-X-X-X-X-X-X-X-X-X---------|
G|-X-X-X-X-X-X-X-X-X-X-X-X-X-X------X-X-X-X-X-X-X-X-X-X-X-X---------|
D|-X-X-X-X-X-X-X-X-X-X-X-X-X-X----2-X-X-X-X-X-X-X-X-X-X-X-X-------2-|
A|-X-X-X-X-X-X-X-X-X-X-X-X-X-X----2-X-X-X-X-X-X-X-X-X-X-X-X--2----2-|
E|-X-X-X-X-X-X-X-X-X-X-X-X-X-X-3b-0-X-X-X-X-X-X-X-X-X-X-X-X----3b-0-|

Chorus
							  x2
E|----------------------------------------------------------|
B|----------------------------------------------------------|
G|----------------------------------------------------------|
D|-2---X-2-2--X-2-2--X-2-2-----2---X-2-2--X--2-2--2-------2-|
A|-2---X-2-2--X-2-2--X-2-2-----2---X-2-2--X--2-2--2--2----2-|
E|-0---X-0-0--X-0-0--X-0-0--3b-0---X-0-0--X--0-0--0----3b-0-|

Post-Chorus

E|-X-X-X-X-X-X-X-X-X-X-X-X----|
B|-X-X-X-X-X-X-X-X-X-X-X-X----|
G|-X-X-X-X-X-X-X-X-X-X-X-X----|
D|-X-X-X-X-X-X-X-X-X-X-X-X----|
A|-X-X-X-X-X-X-X-X-X-X-X-X----|
E|-X-X-X-X-X-X-X-X-X-X-X-X-3b-|

Verse

E|-----------------------------------------------|
B|-----------------------------------------------|
G|-----------------------------------------------|
D|-2----------2----------2----------2----------2-|
A|-2----------2----------2----------2----------2-|
E|-0-------3b-0-------3b-0-------3b-0-------3b-0-|

E|-X-X-X-X-X-X-X-X-X-X-X-X-X-X------X-X-X-X-X-X-X-X-X-X-X-X-X-X------|
B|-X-X-X-X-X-X-X-X-X-X-X-X-X-X------X-X-X-X-X-X-X-X-X-X-X-X-X-X------|
G|-X-X-X-X-X-X-X-X-X-X-X-X-X-X------X-X-X-X-X-X-X-X-X-X-X-X-X-X------|
D|-X-X-X-X-X-X-X-X-X-X-X-X-X-X----2-X-X-X-X-X-X-X-X-X-X-X-X-X-X----2-|
A|-X-X-X-X-X-X-X-X-X-X-X-X-X-X----2-X-X-X-X-X-X-X-X-X-X-X-X-X-X----2-|
E|-X-X-X-X-X-X-X-X-X-X-X-X-X-X-3b-0-X-X-X-X-X-X-X-X-X-X-X-X-X-X-3b-0-|

E|-X-X-X-X-X-X-X-X-X-X-X-X-X-X------X-X-X-X-X-X-X-X-X-X-X-X---------|
B|-X-X-X-X-X-X-X-X-X-X-X-X-X-X------X-X-X-X-X-X-X-X-X-X-X-X---------|
G|-X-X-X-X-X-X-X-X-X-X-X-X-X-X------X-X-X-X-X-X-X-X-X-X-X-X---------|
D|-X-X-X-X-X-X-X-X-X-X-X-X-X-X----2-X-X-X-X-X-X-X-X-X-X-X-X-------2-|
A|-X-X-X-X-X-X-X-X-X-X-X-X-X-X----2-X-X-X-X-X-X-X-X-X-X-X-X--2----2-|
E|-X-X-X-X-X-X-X-X-X-X-X-X-X-X-3b-0-X-X-X-X-X-X-X-X-X-X-X-X----3b-0-|


Chorus

E|----------------------------------------------------------|
B|----------------------------------------------------------|
G|----------------------------------------------------------|
D|-2---X-2-2--X-2-2--X-2-2-----2---X-2-2--X--2-2--2-------2-|
A|-2---X-2-2--X-2-2--X-2-2-----2---X-2-2--X--2-2--2--2----2-|
E|-0---X-0-0--X-0-0--X-0-0--3b-0---X-0-0--X--0-0--0----3b-0-|


E|---------------------------------------------------------|
B|---------------------------------------------------------|
G|-------------------------------------------------------2-|
D|----X-2-2--X-2-2--X-2-2-----2---X-2-2--X--2-2--2-------2-|
A|----X-2-2--X-2-2--X-2-2-----2---X-2-2--X--2-2--2--2----0-|
E|----X-0-0--X-0-0--X-0-0--3b-0---X-0-0--X--0-0--0----3b---|

Bridge

E|----------------------------------|
B|----------------------------------|
G|----------------------------------|
D|----------------------------------|
A|-----------------2--5--------2--5-|
E|---0--3--5-------------0----------|

E|-----------------------------------------------------------------|
B|-5-5-5-5-5-5-5-5-5-5-5-5-5-5-5-5-5-5-5-5-5-5-5-5-5-5-5-5-5-5-5-5-|
G|-7-7-7-7-7-7-7-7-6-6-6-6-6-6-6-6-5-5-5-5-5-5-5-5-4-4-4-4-4-4-4-4-|
D|-----------------------------------------------------------------|
A|-----------------------------------------------------------------|
E|-----------------------------------------------------------------|

Solo-ok its obvious this is another one of Morello's wacky solos...im not exactly sure onethis one
but i'm guessing its probably a slide rubbed over the strings right over the pick-ups 
a wah going
back and forth and manipulating the noise with the toggle switch by flipping it on and 
people should
know what i am talking about...there might also be a filter on the whammy...possibly the 
1 octave or harmonized
up 1 and regular and the same time..please leave comments if anyone has a better idea.

Bridge

E|----------------------------------|
B|----------------------------------|
G|----------------------------------|
D|----------------------------------|
A|-----------------------------2--5-|
E|---0--3--5-------0--3--5----------|


E|---------------------------------------------------------------|
B|-5-5-5-5-5-5-5-5-5-5-5-5-5-5-5-5-5-5-5-5-5-5-5-5-5-5-5-5-------|
G|-7-7-7-7-7-7-7-7-6-6-6-6-6-6-6-6-5-5-5-5-5-5-5-5-4-4-4-4-------|
D|---------------------------------------------------------------|
A|----------------------------------------------------------2----|
E|------------------------------------------------------------3b-|

Chorus

E|---------------------------------------------------------|
B|---------------------------------------------------------|
G|---------------------------------------------------------|
D|-2---X-2-2--X-2-2--X-2-2-----2---X-2-2--X--2-2--2-2------|
A|-2---X-2-2--X-2-2--X-2-2-----2---X-2-2--X--2-2--2-2------|
E|-0---X-0-0--X-0-0--X-0-0--3b-0---X-0-0--X--0-0--0-0---3b-|

							x2
E|--------------------------------------------------------|
B|--------------------------------------------------------|
G|--------------------------------------------------------|
D|-2---X-2-2--X-2-2--X-2-2-----2---X-2-2--X--2-2--2-------|
A|-2---X-2-2--X-2-2--X-2-2-----2---X-2-2--X--2-2--2--2----|
E|-0---X-0-0--X-0-0--X-0-0--3b-0---X-0-0--X--0-0--0----3b-|

E|---|
B|---|
G|---|
D|-2-|
A|-2-|
E|-0-|




























Artist: Audioslave
Song: Original Fire
Album: Revelations
Intro

E|-----------------------------------------------------------------|
B|-5-5-5-5-5-5-5-5-5-5-5-5-5-5-5-5-5-5-5-5-5-5-5-5-5-5-5-5-5-5-5-5-|
G|-7-7-7-7-7-7-7-7-6-6-6-6-6-6-6-6-5-5-5-5-5-5-5-5-4-4-4-4-4-4-4-4-|
D|-----------------------------------------------------------------|
A|-----------------------------------------------------------------|
E|-----------------------------------------------------------------|

E|---------------------------------------------------------------|
B|-5-5-5-5-5-5-5-5-5-5-5-5-5-5-5-5-5-5-5-5-5-5-5-5-5-5-5-5-------|
G|-7-7-7-7-7-7-7-7-6-6-6-6-6-6-6-6-5-5-5-5-5-5-5-5-4-4-4-4-------|
D|---------------------------------------------------------------|
A|----------------------------------------------------------2----|
E|------------------------------------------------------------3b-|

Verse

E|-----------------------------------------------|
B|-----------------------------------------------|
G|-----------------------------------------------|
D|-2----------2----------2----------2----------2-|
A|-2----------2----------2----------2----------2-|
E|-0-------3b-0-------3b-0-------3b-0-------3b-0-|

E|-X-X-X-X-X-X-X-X-X-X-X-X-X-X------X-X-X-X-X-X-X-X-X-X-X-X-X-X------|
B|-X-X-X-X-X-X-X-X-X-X-X-X-X-X------X-X-X-X-X-X-X-X-X-X-X-X-X-X------|
G|-X-X-X-X-X-X-X-X-X-X-X-X-X-X------X-X-X-X-X-X-X-X-X-X-X-X-X-X------|
D|-X-X-X-X-X-X-X-X-X-X-X-X-X-X----2-X-X-X-X-X-X-X-X-X-X-X-X-X-X----2-|
A|-X-X-X-X-X-X-X-X-X-X-X-X-X-X----2-X-X-X-X-X-X-X-X-X-X-X-X-X-X----2-|
E|-X-X-X-X-X-X-X-X-X-X-X-X-X-X-3b-0-X-X-X-X-X-X-X-X-X-X-X-X-X-X-3b-0-|

E|-X-X-X-X-X-X-X-X-X-X-X-X-X-X------X-X-X-X-X-X-X-X-X-X-X-X---------|
B|-X-X-X-X-X-X-X-X-X-X-X-X-X-X------X-X-X-X-X-X-X-X-X-X-X-X---------|
G|-X-X-X-X-X-X-X-X-X-X-X-X-X-X------X-X-X-X-X-X-X-X-X-X-X-X---------|
D|-X-X-X-X-X-X-X-X-X-X-X-X-X-X----2-X-X-X-X-X-X-X-X-X-X-X-X-------2-|
A|-X-X-X-X-X-X-X-X-X-X-X-X-X-X----2-X-X-X-X-X-X-X-X-X-X-X-X--2----2-|
E|-X-X-X-X-X-X-X-X-X-X-X-X-X-X-3b-0-X-X-X-X-X-X-X-X-X-X-X-X----3b-0-|

Chorus
							  x2
E|----------------------------------------------------------|
B|----------------------------------------------------------|
G|----------------------------------------------------------|
D|-2---X-2-2--X-2-2--X-2-2-----2---X-2-2--X--2-2--2-------2-|
A|-2---X-2-2--X-2-2--X-2-2-----2---X-2-2--X--2-2--2--2----2-|
E|-0---X-0-0--X-0-0--X-0-0--3b-0---X-0-0--X--0-0--0----3b-0-|

Post-Chorus

E|-X-X-X-X-X-X-X-X-X-X-X-X----|
B|-X-X-X-X-X-X-X-X-X-X-X-X----|
G|-X-X-X-X-X-X-X-X-X-X-X-X----|
D|-X-X-X-X-X-X-X-X-X-X-X-X----|
A|-X-X-X-X-X-X-X-X-X-X-X-X----|
E|-X-X-X-X-X-X-X-X-X-X-X-X-3b-|

Verse

E|-----------------------------------------------|
B|-----------------------------------------------|
G|-----------------------------------------------|
D|-2----------2----------2----------2----------2-|
A|-2----------2----------2----------2----------2-|
E|-0-------3b-0-------3b-0-------3b-0-------3b-0-|

E|-X-X-X-X-X-X-X-X-X-X-X-X-X-X------X-X-X-X-X-X-X-X-X-X-X-X-X-X------|
B|-X-X-X-X-X-X-X-X-X-X-X-X-X-X------X-X-X-X-X-X-X-X-X-X-X-X-X-X------|
G|-X-X-X-X-X-X-X-X-X-X-X-X-X-X------X-X-X-X-X-X-X-X-X-X-X-X-X-X------|
D|-X-X-X-X-X-X-X-X-X-X-X-X-X-X----2-X-X-X-X-X-X-X-X-X-X-X-X-X-X----2-|
A|-X-X-X-X-X-X-X-X-X-X-X-X-X-X----2-X-X-X-X-X-X-X-X-X-X-X-X-X-X----2-|
E|-X-X-X-X-X-X-X-X-X-X-X-X-X-X-3b-0-X-X-X-X-X-X-X-X-X-X-X-X-X-X-3b-0-|

E|-X-X-X-X-X-X-X-X-X-X-X-X-X-X------X-X-X-X-X-X-X-X-X-X-X-X---------|
B|-X-X-X-X-X-X-X-X-X-X-X-X-X-X------X-X-X-X-X-X-X-X-X-X-X-X---------|
G|-X-X-X-X-X-X-X-X-X-X-X-X-X-X------X-X-X-X-X-X-X-X-X-X-X-X---------|
D|-X-X-X-X-X-X-X-X-X-X-X-X-X-X----2-X-X-X-X-X-X-X-X-X-X-X-X-------2-|
A|-X-X-X-X-X-X-X-X-X-X-X-X-X-X----2-X-X-X-X-X-X-X-X-X-X-X-X--2----2-|
E|-X-X-X-X-X-X-X-X-X-X-X-X-X-X-3b-0-X-X-X-X-X-X-X-X-X-X-X-X----3b-0-|


Chorus

E|----------------------------------------------------------|
B|----------------------------------------------------------|
G|----------------------------------------------------------|
D|-2---X-2-2--X-2-2--X-2-2-----2---X-2-2--X--2-2--2-------2-|
A|-2---X-2-2--X-2-2--X-2-2-----2---X-2-2--X--2-2--2--2----2-|
E|-0---X-0-0--X-0-0--X-0-0--3b-0---X-0-0--X--0-0--0----3b-0-|


E|---------------------------------------------------------|
B|---------------------------------------------------------|
G|-------------------------------------------------------2-|
D|----X-2-2--X-2-2--X-2-2-----2---X-2-2--X--2-2--2-------2-|
A|----X-2-2--X-2-2--X-2-2-----2---X-2-2--X--2-2--2--2----0-|
E|----X-0-0--X-0-0--X-0-0--3b-0---X-0-0--X--0-0--0----3b---|

Bridge

E|----------------------------------|
B|----------------------------------|
G|----------------------------------|
D|----------------------------------|
A|-----------------2--5--------2--5-|
E|---0--3--5-------------0----------|

E|-----------------------------------------------------------------|
B|-5-5-5-5-5-5-5-5-5-5-5-5-5-5-5-5-5-5-5-5-5-5-5-5-5-5-5-5-5-5-5-5-|
G|-7-7-7-7-7-7-7-7-6-6-6-6-6-6-6-6-5-5-5-5-5-5-5-5-4-4-4-4-4-4-4-4-|
D|-----------------------------------------------------------------|
A|-----------------------------------------------------------------|
E|-----------------------------------------------------------------|

Solo-ok its obvious this is another one of Morello's wacky solos...im not exactly sure onethis one
but i'm guessing its probably a slide rubbed over the strings right over the pick-ups 
a wah going
back and forth and manipulating the noise with the toggle switch by flipping it on and 
people should
know what i am talking about...there might also be a filter on the whammy...possibly the 
1 octave or harmonized
up 1 and regular and the same time..please leave comments if anyone has a better idea.

Bridge

E|----------------------------------|
B|----------------------------------|
G|----------------------------------|
D|----------------------------------|
A|-----------------------------2--5-|
E|---0--3--5-------0--3--5----------|


E|---------------------------------------------------------------|
B|-5-5-5-5-5-5-5-5-5-5-5-5-5-5-5-5-5-5-5-5-5-5-5-5-5-5-5-5-------|
G|-7-7-7-7-7-7-7-7-6-6-6-6-6-6-6-6-5-5-5-5-5-5-5-5-4-4-4-4-------|
D|---------------------------------------------------------------|
A|----------------------------------------------------------2----|
E|------------------------------------------------------------3b-|

Chorus

E|---------------------------------------------------------|
B|---------------------------------------------------------|
G|---------------------------------------------------------|
D|-2---X-2-2--X-2-2--X-2-2-----2---X-2-2--X--2-2--2-2------|
A|-2---X-2-2--X-2-2--X-2-2-----2---X-2-2--X--2-2--2-2------|
E|-0---X-0-0--X-0-0--X-0-0--3b-0---X-0-0--X--0-0--0-0---3b-|

							x2
E|--------------------------------------------------------|
B|--------------------------------------------------------|
G|--------------------------------------------------------|
D|-2---X-2-2--X-2-2--X-2-2-----2---X-2-2--X--2-2--2-------|
A|-2---X-2-2--X-2-2--X-2-2-----2---X-2-2--X--2-2--2--2----|
E|-0---X-0-0--X-0-0--X-0-0--3b-0---X-0-0--X--0-0--0----3b-|

E|---|
B|---|
G|---|
D|-2-|
A|-2-|
E|-0-|




















-------------------------------------------------------------------------------
			     Somedays - Audioslave
-------------------------------------------------------------------------------
Tabbed by:Bas
Email:b_vice@hotmail.com

I updated the verse, which I have to thank Carlson-online for:
thanks Carlson-online =)

Tuning:DADGBe



INTRO
      [play this part 3 times   ] then [ 
e|----[-------------------------]------[-------------------------|
B|----[-------------------------]------[-------------------------|
G|----[-------------------------]------[-------------------------|
D|----[-------------------------]------[---------6-----6-----6---|
A|-8\-[------8p6-8--6p5-6--8p6-8]------[-----8p6---8p6---8p6-----|
D|----[--3-3--------------------]------[-3-3---------------------|

VERSE
Note that the e---18 is actually played by an other guitar (overdubbed)
so it is played actually like 18 times, over the D---8b's. Also note
that the last time only the part with the 1-3-3-etc. is played
 
e|-------------------------18-(12x)--------------------------------|
B|-----------------------------------------------------------------|
G|-----------------------------------------------------------------|
D|---------------------------------8b------------------------------| 4x
A|1-2-3-xx-1-2-3-xx-1-2-3------------------------------------------|
D|1-2-3-xx-1-2-3-xx-1-2-3----------8b------------------------------|
                               use wah for the above 2 notes:
                               press the pedal slow down while bending
                               the notes slowly...
           
CHORUS
                   
      [play this part 3 times   ] then [ 
e|----[-------------------------]------[-------------------------|
B|----[-------------------------]------[-------------------------|
G|----[-------------------------]------[-------------------------|
D|----[-------------------------]------[---------6-----6-----6---| 2x
A|-8\-[------8p6-8--6p5-6--8p6-8]------[-----8p6---8p6---8p6-----|
D|----[--3-3--------------------]------[-3-3---------------------|


BREAKDOWN

e|---------------------------------------------------------------------------|
B|---------------------------------------------------------------------------|
G|-------------3..--------------------------------------------------------3..|
D|1..----------3..let ring-------------------------------------5-3--1..---3..|
A|1..let ring--1..----------11\-----/8\----1b~-3-1------/8\----3-1--1..---1..|
D|1..-----------------------------3------3-----3-1----3------3------1..------|
   
 [phaser on here; keep swaying your hand in the rythm of the snare drum, 
  so you can fill the parts between the power chords with muting the strings ]                         
e|---------------------------------------------------------------------------|
B|---------------------------------------------------------------------------|
G|---------------------------------------------------------------------------|
D|-3-3-1-8-3-1-3-1-8-8-3-3-3-1-1-3-3-xxxx-3-3-1-8-3-1-3-1-8-8-3-1-3~---------|
A|-3-3-1-8-3-1-3-1-8-8-3-3-3-1-1-3-3-xxxx-3-3-1-8-3-1-3-1-8-8-3-1-3~---------|
D|-3-3-1-8-3-1-3-1-8-8-3-3-3-1-1-3-3-xxxx-3-3-1-8-3-1-3-1-8-8-3-1-3~---------|


SOLO
create a barrage of the notes you play with the delay, setting it to repeat the
notes shortly after you played them, round 500 ms.

tremolo pick all the notes                 
e|---------------------------------------------------------------------------|
B|-------------------------------------------------18-20-21------------------|
G|-13-----15-----17-----18-----17-----15-------15--17------------------------|
D|-15-----17-----18-----20-----18-----17-------13--15------------------------|
A|---------------------------------------------------------------------------|
D|---------------------------------------------------------------------------|


BRIDGE

e|-------------------------3-------------------------------------------------|
B|-2---1---4---6---6---1---3-------------------------------------------------|
G|-3---1---5---6---6---1---5-------------------------------------------------|
D|-3---3---6---8---8---3---5-------------------------------------------------|
A|-1---3---6---8---8---3---3-------------------------------------------------|
D|---------------------------------------------------------------------------|

 [play this part 3 times       ]then [play this part the last time]
e|---------------------------------------------------------------------------|
B|---------------------------------------------------------------------------|
G|---------------------------------------------------------------------------|
D|---------------------------------------------6------6------6---------------|
A|-8\-------8p6-8--8p6-8--8p6-8------------8p6----8p6----8p6-----------------|
D|-----3-3----------------------------3-3------------------------------------|


OUTRO
                   
      [play this part 3 times   ] then [ 
e|----[-------------------------]------[-------------------------|
B|----[-------------------------]------[-------------------------|
G|----[-------------------------]------[-------------------------|
D|----[-------------------------]------[---------6-----6-----6---|
A|-8\-[------8p6-8--6p5-6--8p6-8]------[-----8p6---8p6---8p6-----|
D|----[--3-3--------------------]------[-3-3---------------------|


      [play this part 3 times   ] then [ 
e|----[-------------------------]------[-------------------------|
B|----[-------------------------]------[-------------------------|
G|----[-------------------------]------[-------------------------|
D|----[-------------------------]------[---------6..----3..------|
A|-8\-[------8p6-8--6p5-6--8p6-8]------[-----8p6-6..----3..------|
D|----[--3-3--------------------]------[-3-3-----6..----3..------|





















___________________________
   / Audioslave               /  I think this song is about Cornell's speculations
  / Shape of Things To Come  /  about the future for him and his family. Note the
 / Revelations              /  family that he mentions in most of his lyrics on 
/__________________________/  Revelations. On the dvd that follow with the cd, he says
                             that now that he has become a father, he now writes his
lyrics from the view of his family and not himself as a single person anymore, sweet isn't it?

 Intro:
 The distorted guitar (in drop-d tuning of course) is overdubed here
|-------------------------------------------|----------------------------------------|
|-------------------------------------------|----------------------------------------|
|-------------------------------------------|----------------------------------------|
|-10h12-12-12---x-10h12-12-12---x-10h12---x-|-7h10-10-10---x-8h10-10-10---x-8h10---x-|
|-10h12-12-12---x-10h12-12-12---x-10h12---x-|-7h10-10-10---x-8h10-10-10---x-8h10---x-|
|-10h12-12-12---x-10h12-12-12---x-10h12---x-|-7h10-10-10---x-8h10-10-10---x-8h10---x-|

|---------------------------------|-----------------------------------|
|---------------------------------|-----------------------------------|
|---------------------------------|-----------------------------------|
|-5h7-7-7---x-3h5-5-5---x-2h3---x-|-0h2-2h3-3/5-0-----------10---12---|
|-5h7-7-7---x-3h5-5-5---x-2h3---x-|-0h2-2h3-3/5-0-----------10---12---|
|-5h7-7-7---x-3h5-5-5---x-2h3---x-|-0h2-2h3-3/5-0-----------10---12---|

|-------------------------------------------|----------------------------------------|
|-------------------------------------------|----------------------------------------|
|-------------------------------------------|----------------------------------------|
|-10h12-12-12---x-10h12-12-12---x-10h12---x-|-7h10-10-10---x-8h10-10-10---x-8h10---x-|
|-10h12-12-12---x-10h12-12-12---x-10h12---x-|-7h10-10-10---x-8h10-10-10---x-8h10---x-|
|-10h12-12-12---x-10h12-12-12---x-10h12---x-|-7h10-10-10---x-8h10-10-10---x-8h10---x-|

|---------------------------------|---------------------------------|
|---------------------------------|---------------------------------|
|---------------------------------|---------------------------------|
|-5h7-7-7---x-3h5-5-5---x-2h3---x-|-0h2-2h3-3/5-0-------------------|
|-5h7-7-7---x-3h5-5-5---x-2h3---x-|-0h2-2h3-3/5-0-------------------|
|-5h7-7-7---x-3h5-5-5---x-2h3---x-|-0h2-2h3-3/5-0-------------------|




 1st Verse: 4x
 a clean sound with a little chorus effect
|---------------------------------|---------------------------------|
|-------------5---------------6---|-------------5-------------------|
|-----7---------------7-----------|-----7---------------5-7p5-------|
|---7---7---7---7---7---7---7---7-|---7---7---7---7---5-------7-----|
|-5-------5-------5-------5-------|-5-------5-------8-----------8---|
|---------------------------------|---------------------------------|

|---------------------------------|---------------------------------------|
|-------------5---------------6---|-------------5-------------------------|
|-----7---------------7-----------|-----7-----------------10-12p10--------|
|---7---7---7---7---7---7---7---7-|---7---7---7---7----10----------10-----|
|-5-------5-------5-------5-------|-5-------5-------/8----------------8---|
|---------------------------------|---------------------------------------|

  " When it's late in the hour
    And a few more grains of sand will fall
    On the colourful flowers
    Grown upon the dust and moss
    Now I fear the worst is near
    I hold them close and count their years
    I pray a ray of light appears
    To shine down on us here "



 Chorus:

|-------------------------------------------|----------------------------------------|
|-------------------------------------------|----------------------------------------|
|-------------------------------------------|----------------------------------------|
|-10h12-12-12---x-10h12-12-12---x-10h12---x-|-7h10-10-10---x-8h10-10-10---x-8h10---x-|
|-10h12-12-12---x-10h12-12-12---x-10h12---x-|-7h10-10-10---x-8h10-10-10---x-8h10---x-|
|-10h12-12-12---x-10h12-12-12---x-10h12---x-|-7h10-10-10---x-8h10-10-10---x-8h10---x-|

|---------------------------------|-----------------------------------|
|---------------------------------|-----------------------------------|
|---------------------------------|-----------------------------------|
|-5h7-7-7---x-3h5-5-5---x-2h3---x-|-0h2-2h3-3p0-/5-----------7---10---|
|-5h7-7-7---x-3h5-5-5---x-2h3---x-|-0h2-2h3-3p0-/5-----------7---10---|
|-5h7-7-7---x-3h5-5-5---x-2h3---x-|-0h2-2h3-3p0-/5-----------7---10---|

|-------------------------------------------|----------------------------------------|
|-------------------------------------------|----------------------------------------|
|-------------------------------------------|----------------------------------------|
|-10h12-12-12---x-10h12-12-12---x-10h12---x-|-7h10-10-10---x-8h10-10-10---x-8h10---x-|
|-10h12-12-12---x-10h12-12-12---x-10h12---x-|-7h10-10-10---x-8h10-10-10---x-8h10---x-|
|-10h12-12-12---x-10h12-12-12---x-10h12---x-|-7h10-10-10---x-8h10-10-10---x-8h10---x-|

|---------------------------------|---------------------------------|
|---------------------------------|---------------------------------|
|---------------------------------|---------------------------------|
|-5h7-7-7---x-3h5-5-5---x-2h3---x-|-0h2-2h3-3/5-0-------------------|
|-5h7-7-7---x-3h5-5-5---x-2h3---x-|-0h2-2h3-3/5-0-------------------|
|-5h7-7-7---x-3h5-5-5---x-2h3---x-|-0h2-2h3-3/5-0-------------------|

  " Break down in the shape of things to come
    But I'm moving on like a soldier
    And I'll say it now, when all is said and done
    It's not ours to break the shape of things to come "



 Interlude:

|---------------------------------|---------------------------------|
|---------------------------------|---------------------------------|
|-----7-------7-------7-------7---|-----7-------7-------7-------7---|
|---7---7---7---7---7---7---7---7-|---7---7---7---7---7---7---7---7-|
|-5-------5-------5-------5-------|-5-------5-------5-------5-------|
|---------------------------------|---------------------------------|




 2nd Verse: 4x
similar to 1st Verse

  " There's a crack in the clouds
    But only for a moment now
    Like an eye looking out
    The blue sky spies the roads we will go down
    I wonder what they hold for us
    I hold my family to my breast
    I fear the worst and hope the best
    Will come to see us blessed "



 Chorus:
similar to previous




 Bridge: (I really like this part, reminds me of the good old Soundgarden days!)
 4/4                               4/4                              3/8
|---------------------------------|--------------------------------|-------------|
|---------------------------------|--------------------------------|-------------|
|---------------------------------|--------------------------------|-------------|
|-0h2-2h3-3p0-5-------------------|-0h2-2h3-3/5-0------------------|-0h2-2h3-3p0-|
|-0h2-2h3-3p0-5-------------------|-0h2-2h3-3/5-0------------------|-0h2-2h3-3p0-|
|-0h2-2h3-3p0-5-------------------|-0h2-2h3-3/5-0------------------|-0h2-2h3-3p0-|

 6/4                                  4/4
|------------------------------------|--------------------|  \
|------------------------------------|--------------------|  |
|------------------------------------|--------------------|  3x
|-5--------3-------0-----------------|-5------x--x--x-x-x-|  |
|-----5--------3-------1---3---3/5---|-5------x--x--x-x-x-|  |
|------------------------------------|-5------x--x--x-x-x-|  /

 6/4
|---------------------------------|
|---------------------------------|
|---------------------------------|
|-5---3---------------------------|
|---------4---1---3-------1---3---|
|---------------------5-----------|

  " Given one more try, what would I change?
    I won't deny the thought is strange
    I've done my best and I will lay no blame
    But on myself "



 Solo:
|-------10----10----10-10------10-10------10----|
|-------10----10----10-10------10-10------10----|
|-------10----10----10-10------10-10------10----|
|-10/12----12----12---------12---------12----12-|
|-10/12-----------------------------------------|
|-----------------------------------------------|

|----------10-------------------------------------13-10----10-------------------------|
|-------10----13-10-------------------------------------13----13-10-13-10----10-------|
|-10b12-------------13-12-12-10-12p10----10-------------------------------12----12-10-|
|-------------------------------------12----12-10-------------------------------------|
|-------------------------------------------------------------------------------------|
|-------------------------------------------------------------------------------------|

|-------------------------------------10------------------------------|
|-13----12----------12----------------10-------x-x-x-10-------x-------|
|-13----12----------12----------------10-12-10-x-x-x-10-12-10-x-10-12-|
|----12----12-10-12----12-10-12-11-12----------x-x-x----12-10-x-10-12-|
|---------------------------------------------------------------------|
|---------------------------------------------------------------------|

(there's a weird break here, but they actually do stick to 4/4)
|----------------------------------10-10-10-10-------10---x/---|
|----------------------------------10-10-10-10-------10---x/---|
|----------12-10-12p10-10-12p10-10-10-10-10-10h12p10-10---x/---|
|-------10-12-10-12p10-10-12p10-10------------------------x/---|
|-10-12---------------------------------------------------x/---|
|---------------------------------------------------------x/---|

(Morello uses a harmoniser that produces random notes (I think),
the point is however just to make it sounds weird - his speciality)
|--------------------------------------|----------------------------------------|
|------15-----------------13----13\10--|--------------13\-----------------------|
|------------12-14----10-----10--------|------10\7/10----------10---------------|
|-/12-----12---------------------------|-------------------/12----12-12---10-12-|
|--------------------------------------|--/12-----------------------------------|
|--------------------------------------|----------------------------------------|

|-----------------------------------------------------------|
|-----------------------------------------------------------|
| here he randomly slides up and down at the b-string,      |
| forget about a tab for it, just play something fucked! ;) |
|-----------------------------------------------------------|
|-----------------------------------------------------------|




 Chorus:
rest in the last bar




 Outro:
|-------------------------------------------|-------------------------------------------|
|-------------------------------------------|-------------------------------------------|
|-------------------------------------------|-------------------------------------------|
|-10h12-12-12---x-10h12-12-12---x-10h12---x-|-10h12-12-12---x-10h12-12-12---x-10h12---x-|
|-10h12-12-12---x-10h12-12-12---x-10h12---x-|-10h12-12-12---x-10h12-12-12---x-10h12---x-|
|-10h12-12-12---x-10h12-12-12---x-10h12---x-|-10h12-12-12---x-10h12-12-12---x-10h12---x-|

|-------------------------------------------|-------------------------------------------|
|-------------------------------------------|-------------------------------------------|
|-------------------------------------------|--------------------------------[fade]-----|
|-10h12-12-12---x-10h12-12-12---x-10h12---x-|-0h2-2h3-3/5-0-------------------[out]-----|
|-10h12-12-12---x-10h12-12-12---x-10h12---x-|-0h2-2h3-3/5-0-----------------------------|
|-10h12-12-12---x-10h12-12-12---x-10h12---x-|-0h2-2h3-3/5-0-----------------------------|

  " The shape of things to come
    The shape of things to come
    The shape of things to come "





















Song - wide awake
album - revelations
band - Audioslave

Ok, i did the bass tab, and i'm pretty sure this is 100% correct, although it is my first tab (on guitar).
As i said, i'm sure it's 100% correct, but i don't have a clue what the effects are. Enjoy

Drop d tuning

Verse (weird effect)
|-------------------------------------|
|-------------------------------------|
|-7--------5--------10-------9*-------|
|-x-(x32)--x-(x16)--x-(x8)---x-(x8)---|
|-5--------3--------8--------7--------|
|-------------------------------------|
*might be on the 10th fret

Pre-chorus (same effects as verse)
|--------------------------------x2|----------|
|----------------------------------|----------|
|-7--------3--------7-------10-----|-9--------|
|-x-(x32)--x-(x16)--x-(x8)--x-(x8)-|-x-(x32)--|
|-5--------1--------5-------8------|-7--------|
|----------------------------------|----------|

Chorus (no effects?)
|----------------------------------------------------x2|------------------|
|------------------------------------------------------|------------------|
|-7--------5------10------10------3------7------5------|-1010101012121212-|
|-7--------5------10------10------3------7------5------|-1010101012121212-|
|-5-(x16)--3-(x8)-8--(x4)-7--(x4)-1-(x8)-5-(x8)-3-(x8)-|-8-8-8-8-10101010-|
|------------------------------------------------------|------------------|

Bridge (effects, maybe delay)
|----------------|
|-33-33-33-33-33-| play this a few times
|----------------|
|----------------|
|----------------|
|----------------|

Verse (weird effect)
|-------------------------------------|
|-------------------------------------|
|-7--------5--------10-------9*-------|
|-x-(x32)--x-(x16)--x-(x8)---x-(x8)---|
|-5--------3--------8--------7--------|
|-------------------------------------|
*might be on the 10th fret

Pre-chorus (same effects as verse)
|--------------------------------x1|----------|
|----------------------------------|----------|
|-7--------3--------7-------10-----|-9--------|
|-x-(x32)--x-(x16)--x-(x8)--x-(x8)-|-x-(x32)--|
|-5--------1--------5-------8------|-7--------|
|----------------------------------|----------|

Chorus

Solo (weird effects)
|---------------------------------------------------------------------------|
|---------------------------------------------------------------------------|
|---------------------------------------------------------------------------|
|-------5-------------5-------7-5-3-5~--7-5-3-5~--8-7-5-7-5-3~--8-7-5-7-5-3~|
|-5-7-8---8-7~--5-7-8---8-7~------------------------------------------------|
|-------------------------------------------------8-7-5-7-5-3~--8-7-5-7-5-3~|

|----------------------------------|
|----------------------------------|
|----------------------------------|
|-10--8--7--5--3--2--0-------------|
|-----------------------3--5~------|
|----------------------------------|

Chorus x1
then cut it off at the end and play this
|------------------|
|------------------|
|-5555555555555555-|
|-5555555555555555-|
|-3333333333333333-|
|------------------|

And then play the chorus with the end bit

finally, play the solo again, but change the ending slightly to this
|--------------------------------------|
|--------------------------------------|
|--------------1010101012121212-7------|
|-10--8--7--5--1010101012121212-7------|
|--------------8-8-8-8-10101010-5------|
|--------------------------------------|















Title: *Nothing Left To Say But Goodbye*
Artist: Audioslave
Album: Revalations
=====================================================================================
Written by Chris Cornell; Audioslave
Produced by Sony BMG Entertainment and 'EPIC'
=====================================================================================
Label: Sony
Year: 2006
=====================================================================================
Track: -11-
=====================================================================================
Transcripted by Asa Gaston
=====================================================================================
Tuning: Drop-D ( D-A-D-G-B-E )
=====================================================================================

-------------------------------------------------------------------------------------
Guitar 1 -{ D-A-D-G-B-E }- Lead - Tom Morello
-------------------------------------------------------------------------------------
Guitar 2 -{ D-A-D-G-B-E }- Fills - Percussion
-------------------------------------------------------------------------------------

=====================================================================================
INTRO
=====================================================================================
0:00-

      D7*        F#m/5-*       Dm/5-*          Bm/5-*  
 Gtr. 1 (clean)
E|-----------------------------------------------7--7h8-7---|\
B|---------3-----------7------------3------------6----------|\\ - - - -
G|------5----5------5-----5------1-----1-----/7-------------|\\\ Play  \
D|---4-----------7------------3-----------------------------|///  2x   /
A|----------------------------------------------------------|// - - - -
D|----------------------------------------------------------|/

=====================================================================================
VERSE 1/VERSE 2
=====================================================================================
0:12-   0:56-

      D7*        F#m/5-*       Dm/5-*          Bm/5-*  
E|--------------------------:---------------:----(7)-7h8-7---|\
B|---------3-----------7----:-------3-------:-----6-----------|\\ - - - -
G|------5----5------5-----5-:----1-----1----:-/7-------------|\\\ Play  \
D|---4-----------7----------:-3-------------:----------------|///  4x   /
A|--------------------------:Play 2x on strt:(Gtr.2 on 2nd---|// - - - -
D|--------------------------:  Verse 2 only :------time only)|/
 |Gtr.2 (clean) -Last 2 repeats only**
E|-----------------------------------------------7--7h8-7---|\
B|-----------------------------------------------6----------|\\ - - - -
G|--11----------10------------------7--------/7-------------|\\\ Play  \
D|-----10-12-10----9--12--9------6--------------------------|///  2x   /
A|---------------------------8------------------------------|// - - - -
D|----------------------------------------------------------|/

=====================================================================================
CHORUS
=====================================================================================
0:35-    1:20-    2:25-

     Bb*               F*      A*       Bb*               Dm*
E|-------------------|-----------------|-----------------|-5---5-5-5-5-5-5-|
B|---3---3---3---3---|-1---1---5---5---|-3---3---3---3---|-6---6-6-6-6-6-6-|
G|---3-x-3-x-3-x-3-x-|-2-x-2-x-6-x-6-x-|-3-x-3-x-3-x-3-x-|-7---7-7-7-7-7-7-|
D|---3-x-3-x-3-x-3-x-|-3-x-3-x-7-x-7-x-|-3-x-3-x-3-x-3-x-|-7---7-7-7-7-7-7-|
A|---1-1-1-1-1-1-1-1-|-3-3-3-3-7-7-7-7-|-1-1-1-1-1-1-1-1-|-5---5-5-5-5-5-5-|
D|-------------------|-----------------|-----------------|-----------------|


     G*               C#*                F*        A*
E|-------------------|-----------------|-----------------|
B|---3-3-3-3-3-3-3-3-|-6-6-6-6-6-6-6-6-|-1-1-------5---5-|
G|---4-4-4-4-4-4-4-4-|-6-6-6-6-6-6-6-6-|-2-2-------6---6-|
D|---5-5-5-5-5-5-5-5-|-6-6-6-6-6-6-6-6-|-3-3-------7---7-|
A|---5-5-5-5-5-5-5-5-|-4-4-4-4-4-4-4-4-|-3-3--0-0--7---7-|
D|-------------------|-----------------|------2-3--------|
 |
E|-------------------|
B|-------------------|
G|-------4-----------|
D|-----3-------------|
A|---2---------------|
D|-------------------|

================================================================================================
BRIDGE
================================================================================================
1:41- 
                           
     G*                       F*       Dm*       Bb*      Dm*      D5*        
E|| -------------------------:-----------1-1-1-1- ||-----------------------------------------|
B||.---3-----3-----3-----3---:--1-1-1-1--3-3-3-3-.||--3-3-3-3--6-6-6-6-------------Play 4x---|
G|| ---4-----4-----4-----4---:--2-2-2-2--2-2-2-2- ||--3-3-3-3--7-7-7-7--7-7-7-7--{-6-6-6-6-}-|
D|| ---5--x--5--x--5--x--5---:--3-3-3-3--0-0-0-0- ||--3-3-3-3--7-7-7-7--7-7-7-7--{-7-7-7-7-}-|
A||.---5--x--5--x--5--x--5---:--3-3-3-3----------.||--1-1-1-1--5-5-5-5--5-5-5-5--{-7-7-7-7-}-|
D|| -------------------------:------------------- ||-----------------------------{-5-5-5-5-}-|
                            \ 1.               : 2.                                      /
                             \ - - - - - - - - : - - - - - - - - - - - - - - - - - - - -/
================================================================================================
INTERLUDE
================================================================================================
2:00-

      D7*        F#m/5-*       Dm/5-*          Bm/5-*  
E|-----------------------------------------------7--7h8-7---|\
B|---------3-----------7------------3------------6----------|\\ - - - -
G|------5----5------5-----5------1-----1-----/7-------------|\\\ Play  \ Palm-muted**
D|---4-----------7------------3-----------------------------|///  2x   / 1st 2 times
A|----------------------------------------------------------|// - - - -
D|----------------------------------------------------------|/

=====================================================================================
OUTRO
=====================================================================================
2:45-

{{{{{{ON IT'S WAY =]

=====================================================================================
















MOTH

Artist: Audioslave
Album: Revelations
Release Date: 9/05/06
Tuning: Drop-D

Yeah well the Vh1.com leak was today and for those who didnt listen i can tell you the 
cd is amazing. I got this far on moth... didnt have much time... but I'll do what I can;
P.S. I had to break it into a few parts so it wouldnt just drag across the screen... 
it continually though.

e|---------------------------------------------------------------|
b|---------------------------------------------------------------|
g|--2---------2---------3---------3---------0---------0----------|
d|---------------------------------------------------------------|
a|---------------------------------------------------------------|
D|----0-3-5-7---0-3-5-7---0-3-5-7---0-3-5-7---0-3-5-3---0-3-5-3--|

e|---------------------------------------------------------------|
b|---------------------------------------------------------------|
g|--2---------2---------2---------2---------3---------3----------|
d|---------------------------------------------------------------|
a|---------------------------------------------------------------|
D|----0-3-5-7---0-3-5-7---0-3-5-7---0-3-5-7---0-3-5-7---0-3-5-7--|

e|-------------------------------------||
b|-------------------------------------||
g|--5---------5---------7---------7~---||
d|-------------------------------------||
a|-------------------------------------||
D|----0-3-5-7---0-3-5-7---0-3-5-7------||







comments
print report bad tab
4 comments total. Showing first comments.
0 reply
cooljew wrote on May 27 2007, 02:40 pm

the only song i wanted was revelations but man, i thought i had that song figured out but i was wrong, yours is much better. way to go man. 5 stars.

0 reply
P_Titty wrote on June 2 2007, 07:59 pm

its only an album if it has ALL the songs!

all you did was take the best out of all the others on this site and put them together

0 reply
faygoluver wrote on June 4 2008, 05:31 pm

Dude on the Original Fire solo, he uses a wah wah and his whammy bar. He puts some slack in the strings, and slaps them on the pick ups.

I want to post or [tab]
guest
You may want to rate the tab now too:
select rating
Please do not post tabs as comments. Select "correction" instead!