Oops, an error
Loading. Please wait.

Revelations Tab

version 1
version 1

Whole song

Interactive

24,079 views 9 this week
3 commentsread comments
1 2 3 4 5
x 10
add to favorites
launch autoscroll
font size
0
reset
how to read this tab
guitar tuner
Autoscroll
slow
fast
+/-
esc
set tempo
stop
Help us to improve Ultimate-Guitar.com Take our survey!
×
Author
Difficulty
intermediate
                                   REVELATIONS
                            As recorded by Audioslave
                        (From the 2006 Album REVELATIONS)

Words by Chris Cornell

Music by Audioslave

Gtr I (D G C F A D) - 'Gtr. 1 (clean)'
Gtr II (D G C F A D) - 'Gtr. 2 (dist.)'
Gtr III (D G C F A D) - 'Gtr. 3 (dist.)'
Gtr IV (D G C F A D) - 'Gtr. 4 (dist.)'
Gtr V (D G C F A D) - 'Gtr. 5 (clean)'

 Intro
  Free Time Q=120
 4/4
  Gtr I
  E  E  E E E E E E   E E E E E E E E   E E E E E E E E
|-------------0-----:-----------0-----:-----------0------:
|-----------0---0---:---------0---0---:---------0---0----:
|---------0-------0-:-------0-------0-:-------0-------0--:
|------12-----------:-----7-----------:-----9------------:
|---10--------------:---5-------------:---7--------------:
|-8-----------------:-3---------------:-5----------------:


                                                        Moderately Q=113
  E E E E  H      E  E  E E E E E E   E E E E E E E E    W
|---------^0----:-------------0-----|-----------0-----|-^0----|
|---------^0----:-----------0---0---|---------0---0---|-^0----|
|-------1-------:---------0-------0-|-------0-------0-|-^0----|
|-----4---------:------12-----------|-----7-----------|-^9----|
|---2-----------:---10--------------|---5-------------|-^7----|
|-0-------------:-8-----------------|-3---------------|-^5----|


  Gtr I
   >
  +W             W                      W                                 4x
|-(0)--------||-----------------------|-----------------------------------||
|-(0)--------||o----------------------|----------------------------------o||
|-(0)--------||-----------------------|-----------------------------------||
|-(9)--------||-----------------------|-----------------------------------||
|-(7)--------||o----------------------|----------------------------------o||
|-(5)--------||-----------------------|-----------------------------------||
|
| Gtr II
|  <
|  W             E E S S e Q  S S S S   e S S S S S S S S S S E +E        4x
|--0---------||-----------------------|-----------------------------------||
|--0---------||o----------------------|----------------------------------o||
|--0---------||-----------------------|-----------------------------------||
|--9---------||------x-x-5------------|-x---------------------------------||
|--7---------||o-----x-x---7--5-5-5-5-|-x-------------5-5-5-5------------o||
|--5---------||--0-0------------------|-x-7-7-7-7---x---------3-(3)b3.5---||


   Verse
    $
    Gtr II
    S S S S E E E S S S E.   S S S S E E E S S S E.
||-------------------------|------------------------|
||o------------------------|------------------------|
||-------------------------|------------------------|
||-------------------------|------------------------|
||o-5-7-7-5-7-------7------|-5-7-7-5-7-------7------|
||--------------0-0-----0--|-------------0-0-----0--|


  S S S S E E E S S S E.    E  E  E  E E E E E
|------------------------|----------------------||
|------------------------|---------------------o||
|------------------------|----------------------||
|------------------------|--9--9--9--9-7-7-7-7--||
|-5-7-7-5-7-------7------|-10-10-10-10-9-9-9-9-o||
|-------------0-0-----0--|----------------------||


  S S S S E E E S S S E.   S S S S E E E S S S E.
|------------------------|------------------------|
|------------------------|------------------------|
|------------------------|------------------------|
|------------------------|------------------------|
|-5-7-7-5-7-------7------|-5-7-7-5-7-------7------|
|-------------0-0-----0--|-------------0-0-----0--|


                                        To Coda
  S S S S E E E S S S E.   S S S S E E E S S S E.
|------------------------|------------------------|
|------------------------|------------------------|
|------------------------|------------------------|
|------------------------|------------------------|
|-5-7-7-5-7-------7------|-5-7-7-5-7-------7------|
|-------------0-0-----0--|-------------0-0-----0--|


 Chorus
   E  E  E  E E E E E    E E E E E E E E     E  E  E  E E E E E
|----------------------|-----------------|----------------------|
|----------------------|-----------------|----------------------|
|----------------------|-----------------|----------------------|
|--9--9--9--9-7-7-7-7\-|-4-4-4-4-5-5-5-5-|--/9--9--9--9-7-7-7---|
|-10-10-10-10-9-9-9-9\-|-5-5-5-5-7-7-7-7-|-/10-10-10-10-9-9-9---|
|----------------------|-----------------|--------------------0-|


  E E E E E E E E    E  E  E  E E E E E    E  E  E  E  E  E  E  E
|-----------------|---------------------|-------------------------|
|-----------------|---------------------|-------------------------|
|-----------------|---------------------|-------------------------|
|-6-6-6-6-6-6-6---|--9--9--9--9-7-7-7-7-|--9--9--9--9-10-10-10-10-|
|-7-7-7-7-7-7-7---|-10-10-10-10-9-9-9-9-|-10-10-10-10-12-12-12-12-|
|-0-0-0-0-0-0-0-7-|---------------------|-------------------------|


   E  E  E  E E E E E   E E E E E E E E   E E E E E E E E
|---------------------|-----------------|-----------------|
|---------------------|-----------------|-----------------|
|---------------------|-----------------|-----------------|
|--9--9--9--9-7-7-7---|-6-6-6-6-6-6-6---|-6-6-6-6-6-6-6---|
|-10-10-10-10-9-9-9---|-7-7-7-7-7-7-7---|-7-7-7-7-7-7-7---|
|-------------------0-|-0-0-0-0-0-0-0---|-0-0-0-0-0-0-0---|


  E E E E E E E E   S S E E E E E Q
|-----------------|-------------------||
|-----------------|-------------------||
|-----------------|-------------------||
|-6-6-6-6-6-6-6---|-6-6-6-6-6-6-6-----||
|-7-7-7-7-7-7-7---|-7-7-7-7-7-7-7-7\--||
|-0-0-0-0-0-0-0---|-0-0-0-0-0-0-0-----||


 Interlude
  E E S S e Q  S S S S   e S S S S S S S S S S E +E
|----------------------|---------------------------------|
|----------------------|---------------------------------|
|----------------------|---------------------------------|
|-----x-x-5------------|-x-------------------------------|
|-----x-x---7--5-5-5-5-|-x-------------5-5-5-5-----------|
|-0-0------------------|-x-7-7-7-7---x---------3-(3)b3.5-|


                                     D.S. al Coda
  E E S S e Q  S S S S   e S S S S S S S S S S E +E
|----------------------|---------------------------------|
|----------------------|---------------------------------|
|----------------------|---------------------------------|
|-----x-x-5------------|-x-------------------------------|
|-----x-x---7--5-5-5-5-|-x-------------5-5-5-5-----------|
|-0-0------------------|-x-7-7-7-7---x---------3-(3)b3.5-|


 Chorus
  &
   E  E  E  E E E E E    E E E E E E E E     E  E  E  E E E E E
|----------------------|-----------------|----------------------|
|----------------------|-----------------|----------------------|
|----------------------|-----------------|----------------------|
|--9--9--9--9-7-7-7-7\-|-4-4-4-4-5-5-5-5-|--/9--9--9--9-7-7-7---|
|-10-10-10-10-9-9-9-9\-|-5-5-5-5-7-7-7-7-|-/10-10-10-10-9-9-9---|
|----------------------|-----------------|--------------------0-|


  E E E E E E E E    E  E  E  E E E E E    E  E  E  E  E  E  E  E
|-----------------|---------------------|-------------------------|
|-----------------|---------------------|-------------------------|
|-----------------|---------------------|-------------------------|
|-6-6-6-6-6-6-6---|--9--9--9--9-7-7-7-7-|--9--9--9--9-10-10-10-10-|
|-7-7-7-7-7-7-7---|-10-10-10-10-9-9-9-9-|-10-10-10-10-12-12-12-12-|
|-0-0-0-0-0-0-0-7-|---------------------|-------------------------|


   E  E  E  E E E E E   E E E E E E E E   E E E E E E E E
|---------------------|-----------------|-----------------|
|---------------------|-----------------|-----------------|
|---------------------|-----------------|-----------------|
|--9--9--9--9-7-7-7---|-6-6-6-6-6-6-6---|-6-6-6-6-6-6-6---|
|-10-10-10-10-9-9-9---|-7-7-7-7-7-7-7---|-7-7-7-7-7-7-7---|
|-------------------0-|-0-0-0-0-0-0-0---|-0-0-0-0-0-0-0---|


  E E E E E E E E   E E E E E E E E
|-----------------|-----------------||
|-----------------|-----------------||
|-----------------|-----------------||
|-6-6-6-6-6-6-6---|-6-6-6-6-6-6-6---||
|-7-7-7-7-7-7-7---|-7-7-7-7-7-7-7---||
|-0-0-0-0-0-0-0---|-0-0-0-0-0-0-0---||


 Guitar Solo
  Gtr III
  S S S S  S  S S S  S  S S S S S S S   S S S S S S S S S S S S S S S  S
|-------------------------------------|----------------------------------|
|-------------------------------------|----------------------------------|
|-------------------------------------|----------------------------------|
|-----7-------7---------------5---7-5-|---7-----5---7-5---7-----5---7----|
|-5-7-7-------7-7-5-(5)-7-7-5---7-----|-5---7-5---7-----5---7-5---7---10-|
|-------5-(5)-------------------------|----------------------------------|


   S   S  S  S  S S S  S  S S S  S  S S S  S
|--------------------------------------------|
|--------------------------------------------|
|-------------------9-------9-----------9----|
|---------9----12-9---12------9----12-9------|
|-12-(12)---12-----------12-----12--------17-|
|--------------------------------------------|


   S  S  S  S  S  S  S  S  S  S  S  S  S  S  S  S
|-------------------------------------------------|
|-------------------------------------------------|
|-------------------------------------------------|
|-17----19-17----19-------------------------------|
|----19-------17----19-17----19-------17----19-19-|
|-------------------------17----19-17----19-------|


    S   S  S  S   S   S  S  S   S   S  S  S   S   S  S  S
|---------------------------------------------------------|
|---------21---------21-----------------------------------|
|------21---------------21---------21---------------21----|
|-------------------------------------21---------21-------|
|-(19)-------19-(19)-------19-(19)-------19-(19)-------19-|
|---------------------------------------------------------|


    S   S  S  S   S   S  S  S   S   S  S  S   S   S  S  S
|---------------------------------------------------------|
|-----------------------21---------21---------------------|
|------21-----------------------------21---------21-------|
|---------21---------21-----------------------------21----|
|-(19)-------19-(19)-------19-(19)-------19-(19)-------19-|
|---------------------------------------------------------|


  Gtr III
    S   S  S  S   S   S  S  S   S   S  S  S   E      E
|------------------------------------------------------|
|-------------------------------------21---------------|
|---------21---------21--------------------------------|
|------21---------------21---------21------------------|
|-(19)-------19-(19)-------19-(19)-------19-(19)----17-|
|------------------------------------------------------|
|
| Gtr IV
|   H                           Q             S   E.
|------------------------------------------------------|
|------------------------------------------------------|
|------------------------------------------------------|
|------------------------------------------------------|
|------------------------------------------------17s===|
|------------------------------------------------------|
|
| Gtr II
|   W
|------------------------------------------------------|
|------------------------------------------------------|
|------------------------------------------------------|
|------------------------------------------------------|
|------------------------------------------------------|
|------------------------------------------------------|


       ~~~~~~~~~~~~
   +E  Q.      +H
|-------------------------|
|-------------------------|
|-------------------------|
|-------------------------|
|-(17)19------(19)--------|
|-------------------------|
|
|                     ~~
|   H.                Q
|-------------------------|
|-------------------------|
|-------------------------|
|-------------------------|
|---0s===============19---|
|-------------------------|
|
|   E  E  E E   E  E  E E
|-------------------------|
|-------------------------|
|-------------------------|
|-------------------------|
|---7--7--7-7---7--7--7---|
|---0--0--0-0---0--0--0---|


    ~~~~~~~~~~~~~~~~~~~~~~~~~~~~~~~~~~~~~~~~~~~~~~~
    W                    +W                   +W
|---------------------|--------------------|---------------------||
|---------------------|--------------------|---------------------||
|---------------------|--------------------|---------------------||
|---------------------|--------------------|---------------------||
|-(19)----------------|-(19)---------------|-(19)----------------||
|---------------------|--------------------|---------------------||
|
|   ~~~~~         ~~                   ~~~~~~~~~~~~          ~~
|   Q    H        Q       H.           Q       Q    H        Q
|---------------------|--------------------|---------------------||
|---------------------|--------------------|---------------------||
|---------------------|--------------------|---------------------||
|---------------------|--------------------|---------------------||
|-(19)s==0s======19---|---0s==========19---|-(19)s==0s======19---||
|---------------------|--------------------|---------------------||
|
|   E  E E E E E  E E     E E E E E E  E E     E  E E E E E  E E
|---------------------|--------------------|---------------------||
|---------------------|--------------------|---------------------||
|---------------------|--------------------|---------------------||
|---------------------|--------------------|---------------------||
|---7--7-7-7-7-7--7---|---7-7-7-7-7-7--7---|---7--7-7-7-7-7--7---||
|---0--0-0-0-0-0--0---|---0-0-0-0-0-0--0---|---0--0-0-0-0-0--0---||


   Bridge
    Gtr I
      E   E  E E E E E E     E  E E E E E E E
||-----------------0-----|--------------0-----|
||o--------------0---0---|------------0---0---|
||-------------0-------0-|----------0-------0-|
||----------12-----------|--------7-----------|
||o------10--------------|------5-------------|
||----8------------------|---3----------------|
|
|   Gtr V
|     W                      W
||-----------------------|-<12>---------------|
||o-<12>-----------------|--------------------|
||-----------------------|--------------------|
||-----------------------|--------------------|
||o----------------------|--------------------|
||-----------------------|--------------------|


    E  E E   E     E   E   E  E      E   E E E  H
|----------------------0--------|--------------^0-----||
|------------------0-------0----|--------------^0----o||
|------------0----------------0-|------------1--------||
|--------9----------------------|----------4----------||
|------7------------------------|--------2-----------o||
|---5---------------------------|----0----------------||
|
|   Q.       E    +Q       Q        +W
|------------------------<12>---|-(<12>)--------------||
|----------<12>-(<12>)----------|--------------------o||
|-<12>--------------------------|---------------------||
|-------------------------------|---------------------||
|-------------------------------|--------------------o||
|-------------------------------|---------------------||


    E   E  E   E     E   E E E      E   E E E   E  E E E
|------------------------0-----|-------------------0-----|
|--------------------0-----0---|----------------0----0---|
|--------------0-------------0-|------------0----------0-|
|---------12-------------------|----------7--------------|
|------10----------------------|--------5----------------|
|---8--------------------------|----3--------------------|
|
|   Q.         E    +H             +H           H
|------------<12>-(<12>)-------|-(<12>)------------------|
|-<12>-------------------------|--------------<12>-------|
|------------------------------|-------------------------|
|------------------------------|-------------------------|
|------------------------------|-------------------------|
|------------------------------|-------------------------|


   E  E E   E     E   E   E  E      E   E E E  H
|---------------------0--------|--------------^0----|
|-----------------0-------0----|--------------^0----|
|-----------0----------------0-|------------1-------|
|-------9----------------------|----------4---------|
|-----7------------------------|--------2-----------|
|--5---------------------------|----0---------------|
|
|  Q.       E    +Q       Q        +W
|-----------------------<12>---|-(<12>)-------------|
|---------<12>-(<12>)----------|--------------------|
|------------------------------|--------------------|
|------------------------------|--------------------|
|------------------------------|--------------------|
|-[5]--------------------------|--------------------|


    E   E  E   E     E   E   E  E
|------------------------0--------|
|--------------------0-------0----|
|--------------0----------------0-|
|---------12----------------------|
|------10-------------------------|
|---8-----------------------------|
|
|   Q.         E    +Q       Q
|-<12>---------------------<12>---|
|------------<12>-(<12>)----------|
|---------------------------------|
|---------------------------------|
|---------------------------------|
|---------------------------------|


     E   E E E   E  E E E     W            +W
|-------------------0-----|-^-0---------|--(0)----||
|----------------0----0---|-^-0---------|--(0)----||
|------------0----------0-|-^-0---------|--(0)----||
|----------7--------------|-^-9---------|--(9)----||
|--------5----------------|-^-7---------|--(7)----||
|----3--------------------|-^-5---------|--(5)----||
|
|   +H           H            W             W
|-(<12>)-------<12>-------|-<12>--------|-<12>----||
|-------------------------|-------------|---------||
|-------------------------|-------------|---------||
|-------------------------|-------------|---------||
|-------------------------|-------------|---------||
|-------------------------|-------------|---------||


   Interlude
    Gtr II
     E  E  E  E E E E E    E E E E E E E E
||-----------------------|-----------------|
||o--0--0--0--0-0-0-0-0--|-0-0-0-0-0-0-0-0-|
||---0--0--0--0-0-0-0-0--|-0-0-0-0-0-0-0-0-|
||---9--9--9--9-7-7-7-7\-|-4-4-4-4-5-5-5-5-|
||o-10-10-10-10-9-9-9-9\-|-5-5-5-5-7-7-7-7-|
||-----------------------|-----------------|


   E  E  E  E E E E E   E E E E E E E E
|---------------------|-------------------||
|--0--0--0--0-0-0-0---|-0-0-0-0-0-0-0----o||
|--0--0--0--0-0-0-0---|-4-4-4-4-4-4-4-----||
|--9--9--9--9-7-7-7-0-|-6-6-6-6-6-6-6-----||
|-10-10-10-10-9-9-9-0-|-7-7-7-7-7-7-7----o||
|---------------------|---------------7---||


 Chorus
   E  E  E  E E E E E    E E E E E E E E     E  E  E  E E E E E
|----------------------|-----------------|----------------------|
|----------------------|-----------------|----------------------|
|----------------------|-----------------|----------------------|
|--9--9--9--9-7-7-7-7\-|-4-4-4-4-5-5-5-5-|--/9--9--9--9-7-7-7---|
|-10-10-10-10-9-9-9-9\-|-5-5-5-5-7-7-7-7-|-/10-10-10-10-9-9-9---|
|----------------------|-----------------|--------------------0-|


  E E E E E E E E    E  E  E  E E E E E    E  E  E  E  E  E  E  E
|-----------------|---------------------|-------------------------|
|-----------------|---------------------|-------------------------|
|-----------------|---------------------|-------------------------|
|-6-6-6-6-6-6-6---|--9--9--9--9-7-7-7-7-|--9--9--9--9-10-10-10-10-|
|-7-7-7-7-7-7-7---|-10-10-10-10-9-9-9-9-|-10-10-10-10-12-12-12-12-|
|-0-0-0-0-0-0-0-7-|---------------------|-------------------------|


   E  E  E  E E E E E   E E E E E E E E    E  E  E  E  E E E E
|---------------------|-----------------|-----------------------|
|---------------------|-----------------|-----------------------|
|---------------------|-----------------|-----------------------|
|--9--9--9--9-7-7-7---|-6-6-6-6-6-6-6---|--9--9--9--9--7-7-7-7\-|
|-10-10-10-10-9-9-9---|-7-7-7-7-7-7-7---|-10-10-10-10--9-9-9-9\-|
|-------------------0-|-0-0-0-0-0-0-0-7-|-----------------------|
|
| Gtr IV
|                                          ~~~~~~~~~~~~~~
|  W                    W                  H           H
|---------------------|-----------------|-----------------------|
|---------------------|-----------------|-17----------17--------|
|---------------------|-----------------|-----------------------|
|---------------------|-----------------|-----------------------|
|---------------------|-----------------|-----------------------|
|---------------------|-----------------|-----------------------|


   E E E E  E E E E     E  E  E  E  E E E E    E E E E  E E E E
|-------------------|-----------------------|-------------------|
|-------------------|-----------------------|-------------------|
|-------------------|-----------------------|-------------------|
|--4-4-4-4--5-5-5-5-|--/9--9--9--9--7-7-7---|--6-6-6-6--6-6-6---|
|--5-5-5-5--7-7-7-7-|-/10-10-10-10--9-9-9---|--7-7-7-7--7-7-7---|
|-------------------|---------------------0-|--0-0-0-0--0-0-0-7-|
|
|  ~~~~~~~~~~~~~~~~~~~~~~~~~~~~~~~~~~~~~~~~~~~~~~~~~~~~~~~
|  H        H           H           H          H        H
|-------------------|-----------------------|-------------------|
|-17-------17-------|--17----------17-------|-17-------17-------|
|-------------------|-----------------------|-------------------|
|-------------------|-----------------------|-------------------|
|-------------------|-----------------------|-------------------|
|-------------------|-----------------------|-------------------|


   E     E     E  E  E E E E    E  E  E  E  E  E  E  E    E  E  E  E  E E E E
|----------------------------|-------------------------|-----------------------|
|----------------------------|-------------------------|-----------------------|
|----------------------------|-------------------------|-----------------------|
|--9-----9-----9--9--7-7-7-7-|--9--9--9--9-10-10-10-10-|--9--9--9--9--7-7-7----|
|-10----10----10-10--9-9-9-9-|-10-10-10-10-12-12-12-12-|-10-10-10-10--9-9-9----|
|----------------------------|-------------------------|--------------------0--|
|
|                               ~~~~~~~~~~~~~~~~~~~~~~~~~~~~~~~~~~~~~~~~
|  |---3----|
|  E  E     E  Q     H          H           H             H           H
|----------------------------|-------------------------|-----------------------|
|-17-17----17-17----17-------|-17----------17----------|-17----------17--------|
|----------------------------|-------------------------|-----------------------|
|----------------------------|-------------------------|-----------------------|
|----------------------------|-------------------------|-----------------------|
|----------------------------|-------------------------|-----------------------|


   ~~~~~~~~~~~
   H        H         H                 H                 H
|-------------------|-----------------|-----------------|-----------------*|
|-17-------17-------|-----------------|-----------------|-----------------*|
|-------------------|-----------------|-----------------|-----------------*|
|-------------------|-----------------|-----------------|-----------------*|
|-------------------|-----------------|-----------------|-----------------*|
|-------------------|-----------------|-----------------|-----------------*|
|
|  E E E E  E E E E   E E E E E E E E   E E E E E E E E   E E E E E E E E
|-------------------|-----------------|-----------------|-----------------*|
|-------------------|-----------------|-----------------|-----------------*|
|-------------------|-----------------|-----------------|-----------------*|
|-------------------|-----------------|-----------------|-----------------*|
|--7-7-7-7--7-7-7---|-7-7-7-7-7-7-7---|-7-7-7-7-7-7-7---|-7-7-7-7-7-7-7---*|
|--0-0-0-0--0-0-0---|-0-0-0-0-0-0-0---|-0-0-0-0-0-0-0---|-0-0-0-0-0-0-0---*|


Duration Legend
---------------
W - whole; H - half; Q - quarter; E - 8th; S - 16th; T - 32nd; X - 64th; a - acciaccatura
+ - note tied to previous; . - note dotted; .. - note double dotted
Uncapitalized letters represent notes that are staccato (1/2 duration)
Irregular groupings are notated above the duration line
Duration letters will always appear directly above the note/fret number it represents the
duration for.  Duration letters with no fret number below them represent rests.  Multi-
bar rests are notated in the form Wxn, where n is the number of bars to rest for.  Low
melody durations appear below the staff

Tablature Legend
----------------
 h   - hammer-on
 p   - pull-off
 b   - bend
 pb  - pre-bend
 r   - bend release (if no number after the r, then release immediately)
 /\  - slide into or out of (from/to "nowhere")
 s   - legato slide
 S   - shift slide
  - natural harmonic
[n]  - artificial harmonic
n(n) - tapped harmonic
 ~   - vibrato
 tr  - trill
 T   - tap
 TP  - trem. picking
 PM  - palm muting
\n/  - tremolo bar dip; n = amount to dip
 \n  - tremolo bar down
 n/  - tremolo bar up
/n\  - tremolo bar inverted dip
 =   - hold bend; also acts as connecting device for hammers/pulls
 <>  - volume swell (louder/softer)
 x   - on rhythm slash represents muted slash
 o   - on rhythm slash represents single note slash

Misc Legend
-----------
 |  - bar
||  - double bar
||o - repeat start
o|| - repeat end
*|  - double bar (ending)
 :  - bar (freetime)
 $  - Segno
 &  - Coda
Tempo markers -  = BPM(8/16=s8/s16), where s8 = swing 8ths, s16 = swing 16ths


***************************************************************************************
* Generated using Power Tab Editor by Brad Larsen - http://powertab.guitarnetwork.org *
***************************************************************************************
Suggest correction
comments
print report bad tab
3 comments total.
0 reply
eleshop 41 Sep 18, 2008 01:03 AM

Freaking great work. Finally someone tabbed this right. I've seen so many videos of people trying to play this on youTube, and everyone makes it so much harder than it is... making it sound worse at the same time. No one realizes that its in standard tuning (or tuned down a whole step). Great job!

0 reply
hippi901 182 Jul 17, 2009 10:57 AM

oh thats interesting... never seen tom play whole step down.:D great tab!

0 reply
NzT 101 Jun 28, 2011 08:23 AM

It's a studio recording. Nothing stopping him.

Great tab by the way.

guest
You may want to rate the tab now too:
select rating
Wanna post a correction for this tab? Suggest correction