Oops, an error
Loading. Please wait.

Revelations Tab

version 2
version 2

Whole song

Interactive

61,411 views 108 this week
18 commentsread comments
1 2 3 4 5
x 33
add to favorites
launch autoscroll
font size
0
reset
how to read this tab
guitar tuner
Autoscroll
slow
fast
+/-
esc
set tempo
stop
Help us to improve Ultimate-Guitar.com Take our survey!
×
Author
Difficulty
Tuning
intermediate
D A D G B E
-------------------------------------------------------------------------------
                             REVELATIONS - Audioslave
-------------------------------------------------------------------------------
Tabbed by: jacobmcfarland
Email: jacobmcfarland@gmail.com

Tuning: Drop D (DADGBE)

[Intro]
E|---------------------------------------------------------------|
B|-----------------------------3------------------------------3--|
G|------------7--------------2---2-------------7--------------2--|
D|-----10---7---7--------5-0-------0-----7---7---7-------2-4--0--|
A|---8----8-------8----3---------------5---8-------8---0---------|
D|-8-----------------3---------------5---------------0-----------|

E|---------------------------------------|
B|-----------------------------3------3--|
G|------------7--------------2---2----2--|
D|-----10---7---7--------5-0-------0--0--|
A|---8----8-------8----3--------------0--|
D|-8-----------------3----------------0--|

[Main Riff]
E|-------------------------------------------------------|
B|-------------------------------------------------------|
G|-------------------------------------------------------|4x
D|-0-0-x-x-----------------------------------------------|
A|-0-0-x-x--8--5------3-3-3-3---0-0-0-0----3-3-3-3-------|
D|-0-0-x-x-------------------------------------------3b--|

[Verse]
("You know what to do...")
E|------------------------|   |------------------|
B|------------------------|3x |------------------|
G|------------------------|   |------------------|
D|------------------------|   |-7-7-7-7----------|
A|-3/5-5-3-5--------5-----|   |-8-8-8-8-7-7-7-7--|
D|------------0-0-0---0---|   |------------------|

E|------------------------|   |------------------|
B|------------------------|3x |------------------|
G|------------------------|   |------------------|
D|------------------------|   |-7-7-7-7----------|
A|-3/5-5-3-5--------5-----|   |-8-8-8-8-7-7-7-7--|
D|------------0-0-0---0---|   |------------------|

E|------------------------|
B|------------------------|4x
G|------------------------|
D|------------------------|
A|-3/5-5-3-5--------5-----|
D|------------0-0-0---0---|

[Chorus]
("It's such a shame..")
E|------------------------------------------------------------------|
B|------------------------------------------------------------------|
G|------------------------------------------------------------------|
D|-7-7-7-7-5-5-5-5-2-2-2-2-3-3-3-3-7-7-7-7-5-5-5-5-4-4-4-4-4-4-4-4--|
A|-8-8-8-8-7-7-7-7-3-3-3-3-5-5-5-5-8-8-8-8-7-7-7-7-5-5-5-5-5-5-5-5--|
D|------------------------------------------------------------------|

E|----------------------------------------------------------------------|
B|----------------------------------------------------------------------|
G|----------------------------------------------------------------------|
D|-7-7-7-7-5-5-5-5-7-7-7-7-10-10-10-10-7-7-7-7-5-5-5-5-4-4-4-4-4-4-4-4--|
A|-8-8-8-8-7-7-7-7-8-8-8-8-8--8--8--8--8-8-8-8-7-7-7-7-5-5-5-5-5-5-5-5--|
D|----------------------------------------------------------------------|

E|---------------------------------------------------------------|
B|---------------------------------------------------------------|
G|-7-7-7-5-7-7-7--7-7-7-5-7-7-7--7-7-7-5-7-7-7--7-7-7-5-7-7-7\---|
D|-7-7-7-5-5-7-7--7-7-7-5-7-7-7--7-7-7-5-7-7-7--7-7-7-5-7-7-7\---|
A|-5-5-5-3-5-5-5--5-5-5-3-5-5-5--5-5-5-3-5-5-5--5-5-5-3-5-5-5\---|
D|---------------------------------------------------------------|

[Main Riff] 2x
[Verse]

[Chorus 2]
E|------------------------------------------------------------------|
B|------------------------------------------------------------------|
G|------------------------------------------------------------------|
D|-7-7-7-7-5-5-5-5-2-2-2-2-3-3-3-3-7-7-7-7-5-5-5-5-4-4-4-4-4-4-4-4--|
A|-8-8-8-8-7-7-7-7-3-3-3-3-5-5-5-5-8-8-8-8-7-7-7-7-5-5-5-5-5-5-5-5--|
D|------------------------------------------------------------------|

E|----------------------------------------------------------------------|
B|----------------------------------------------------------------------|
G|----------------------------------------------------------------------|
D|-7-7-7-7-5-5-5-5-7-7-7-7-10-10-10-10-7-7-7-7-5-5-5-5-4-4-4-4-4-4-4-4--|
A|-8-8-8-8-7-7-7-7-8-8-8-8-8--8--8--8--8-8-8-8-7-7-7-7-5-5-5-5-5-5-5-5--|
D|----------------------------------------------------------------------|

[Solo]
"Good luck.. all I know is that there are overlapping parts, and lots of toggle switch stuff."

[End Solo]
E|-------------------------------------------------------------|
B|-------------------------------------------------------------|
G|-7-7-7-5-7-7-7--7-7-7-5-7-7-7--7-7-7-5-7-7-7--7-7-7-5-7-7-7--|
D|-7-7-7-5-5-7-7--7-7-7-5-7-7-7--7-7-7-5-7-7-7--7-7-7-5-7-7-7--|
A|-5-5-5-3-5-5-5--5-5-5-3-5-5-5--5-5-5-3-5-5-5--5-5-5-3-5-5-5--|
D|-------------------------------------------------------------|

[Bridge]
("I am haunted..")
E|---------------------------------------------------------------|
B|-----------------------------3------------------------------3--|
G|------------7--------------2---2-------------7--------------2--| 4x
D|-----10---7---7--------5-0-------0-----7---7---7-------2-4--0--|
A|---8----8-------8----3---------------5---8-------8---0---------|
D|-8-----------------3---------------5---------------0-----------|

E|------------------------------------------------------------------|
B|------------------------------------------------------------------|
G|------------------------------------------------------------------|2x
D|-7-7-7-7-5-5-5-5-2-2-2-2-3-3-3-3-7-7-7-7-5-5-5-5-4-4-4-4-4-4-4-4--|
A|-8-8-8-8-7-7-7-7-3-3-3-3-5-5-5-5-8-8-8-8-7-7-7-7-5-5-5-5-5-5-5-5--|
D|------------------------------------------------------------------|

[Chorus]

[Ending]
E|-------------------------------------------------------------|
B|-------------------------------------------------------------|
G|-7-7-7-5-7-7-7--7-7-7-5-7-7-7--7-7-7-5-7-7-7--7-7-7-5-7-7-7--|
D|-7-7-7-5-5-7-7--7-7-7-5-7-7-7--7-7-7-5-7-7-7--7-7-7-5-7-7-7--|
A|-5-5-5-3-5-5-5--5-5-5-3-5-5-5--5-5-5-3-5-5-5--5-5-5-3-5-5-5--|
D|-------------------------------------------------------------|
 

************************************

| b  Bend
| /  slide up
| \  slide down
| x  Mute note

************************************
Suggest correction
comments
print report bad tab
18 comments total. Showing first comments.
+1 reply
cody09 10 Sep 12, 2006 07:43 PM

hey thnx for tabin this i have been waitin 4 this song to be tabsed since the album came out and its very good it sound alot like the song thnx

+2 reply
Thrall 73 Sep 14, 2006 08:54 PM

doesn't look a bit sloppy. good job

+1 reply
JokerFighter 10 Sep 19, 2006 12:33 PM

nice one

guest
You may want to rate the tab now too:
select rating
Wanna post a correction for this tab? Suggest correction