Oops, an error
Loading. Please wait.

Set It Off Bass Tab

version 3
version 3

Whole song

Interactive

1,233 views 1 this week
no commentswrite comment
1 2 3 4 5
2 more votes to show rating
add to favorites
launch autoscroll
font size
0
reset
guitar tuner
Autoscroll
slow
fast
+/-
esc
set tempo
stop
Help us to improve Ultimate-Guitar.com Take our survey!
×
Author
----------------------------------------------------------------------------
			     SET IT OFF - Audioslave
----------------------------------------------------------------------------

Tabbed By : Smackentard
IF YOU HAVE ANY ISSUES WITH THE SONG MESSAGE ME ON MY ACCOUNT

Tuning: Standard

Same deal as my first tab i'm just going to make the parts and tell you how many or when 
play them.

And again add some swing to it. Add flavor.

the bass comes in on the end of 34.

G|---------------                       ------------------------------------|
D|-------------7- play 3 times and then --------------------------7---------|
A|---------4/9---                       ---------4/9-7---------4/9----------|
E|-0-2-0-2-------                       -0-2-0-2-------0-2-0-2--------------|

G|------------------ 3x then --------4/9------------------------------------|
D|------------------         ------------7----------------------------------|
A|------------------         -----------------------------------------------|
E|-202-202-20520----         --202-2----------------------------------------|

G|---------------|
D|---------------|
A|----4/9-97-79--|
E|--2-------9----|

G|-----|
D|-----|
A|-----|
E|--22-|


| /  slide up
| \  slide down
| h  hammer-on
| p  pull-off
| ~  vibrato
| +  harmonic
| x  Mute note
============================================================================
Suggest correction
Give kudos to tab author, rate the tab!
1 2 3 4 5
comments
print report bad tab
guest
You may want to rate the tab now too:
select rating
Wanna post a correction for this tab? Suggest correction