Oops, an error
Loading. Please wait.

Set It Off Tab

version 3
version 3

Whole song

Interactive

1,740 views 1 this week
no commentswrite comment
1 2 3 4 5
x 3
add to favorites
launch autoscroll
font size
0
reset
how to read this tab
guitar tuner
Autoscroll
slow
fast
+/-
esc
set tempo
stop
Help us to improve Ultimate-Guitar.com Take our survey!
×
I didnt try to tab the intro. I would probably make a fool of myself 

                          
                      BRIDGE 2x

  e/--------------------/--------------------/------------------/
  b/--------------------/--------------------/------------------/
  g/--------------------/--------------------/------------------/
  d/-----------------7--/-----------------7--/-----------------7/
  a/--------------9-----/--------------9-----/--------------9---/
  E/--0--2--0--2--------/--0--2--0--2--------/--0--2--0--2------/

    
                  e/--------------------/---/
                  b/--------------------/---/
                  g/--------------------/---/
                  d/--------------------/---/    0nly play the open A
                  a/--------------9--7--/-0-/   on the last time around
                  E/--0--2--0--2--------/---/

On the verse there are two guitars playing. One plays the main riff and the   other plays the high notes

                    GUITAR #1 (MAIN RIFF)2x -WITH DIST0RTION

  e/-----------------------------------/-----------------------------------/
  b/-----------------------------------/-----------------------------------/
  g/-----------------------------------/-----------------------------------/
  d/-----------------------------------/-----------------------------------/
  a/-----------------------------------/-----------------------------------/
  E/--2--0--2xx2--0--2--2--0--5--2--0--/--2--0--2xx2--0--2--2--0--5--2--0--/


   /-----------------------------------/-----------------------/
   /-----------------------------------/-----------------------/
   /-----------------------------------/-----------------------/
   /-----------------------------------/-----------------------/
   /-----------------------------------/-----------------7--0--/
   /--2--0--2xx2--0--2--2--0--5--2--0--/--2--0--2xx2--0--------/

                          GUITAR #2 2x  

          e/-----------------------------------------------/
          b/-----------------------------------------------/
          g/-----------------------------------------------/
          d/--------16--------14--------11--------9--------/
          a/-----------------------------------------------/
          E/-----------------------------------------------/

                         
                                 CHORUS 2x

        e/--------------------------/--------------------------/
        b/--------------------------/--------------------------/
        g/--------------------------/--------------------------/
        d/--------7-----------------/--------7-----------------/
        a/-----9-----9--7-----7--9--/-----9-----9--7-----7--9--/
        E/--2--------------9--------/--2--------------9--------/

 
         /--------------------------/--------------------------/
         /--------------------------/--------------------------/
         /--------------------------/--------------------------/
         /--------7-----------------/--------------------------/
         /-----9-----9--7-----7--9--/--------9-----7------0----/
         /--2--------------9--------/----2---------------------/

                                 
                               BRIDGE #2 
        
         e/----19----19---18---19---/----3----3----5----2----/
         b/----18----18---17---18---/----3----3----5----2----/
         g/----17----17---16---17---/----4----4----6----3----/
         d/-------------------------/----5----5----7----4----/
         a/-------------------------/----5----5----7----4----/
         E/-------------------------/----3----3----5----2----/

          /-----------------/--2--------------/
          /-----------------/--2--------------/
          /-----------------/--3--------------/
          /-4-4-4-4-4-4-4-4-/--4--------------/
          /-4-4-4-4-4-4-4-4-/--4--------------/
          /-2-2-2-2-2-2-2-2-/--2--------------/

IN ORDER

1.INTRO (NOT TABBED)
2.BRIDGE
3.VERSE-(BOTH GUITARS)
4.CHORUS
5.VERSE-(BOTH GUITARS)
6.CHORUS
7.BRIDGE
8.BRIDGE #2
9.CHORUS 
Suggest correction
Give kudos to tab author, rate the tab!
1 2 3 4 5
comments
print report bad tab
guest
You may want to rate the tab now too:
select rating
Wanna post a correction for this tab? Suggest correction