Oops, an error
Loading. Please wait.

Seven Nation Army Bass Tab

version 1
version 1

Live

Interactive

5,019 views 3 this week
no commentswrite comment
1 2 3 4 5
2 more votes to show rating
add to favorites
launch autoscroll
font size
0
reset
guitar tuner
Autoscroll
slow
fast
+/-
esc
set tempo
stop
Help us to improve Ultimate-Guitar.com Take our survey!
×
Author
G|-----0---------|
D|-2-2---2-0-----|
A|-----------3-2-|
E|---------------|repeat
B|---------------|

G|-----|
D|-----|
A|-----|
E|-3-5-|
B|-----|

G|-----0---------|-----0-------------|
D|-2-2---2-0-----|-2-2---2-0---------|
A|-----------3-2-|-----------3-5-3-2-|
E|---------------|-------------------|2x
B|---------------|-------------------|

G|-(0)-(2)-|
D|--5---7--|
A|---------|
E|---------|
B|---------|

G|-----0---------|
D|-2-2---2-0-----|
A|-----------3-2-|
E|---------------|repeat
B|---------------|

G|-----|
D|-----|
A|-----|
E|-3-5-|
B|-----|

G|-----0---------|-----0-------------|
D|-2-2---2-0-----|-2-2---2-0---------|
A|-----------3-2-|-----------3h5-3-2-|
E|---------------|-------------------|2x
B|-----------------------------------|

G|---------------|-------------------|
D|---------------|-------------------|
A|---------------|-------------------|
E|-0-0-3-0-------|-0-0-3-0-----------|
B|---------3-1-0-|---------3-1-3-1-0-|2X

G|-----------------|
D|-----------------|
A|-3-3-3-3-5-5-5-5-|
E|-----------------|
B|-----------------|

G|-----0---------|
D|-2-2---2-0-----|
A|-----------3-2-|
E|---------------|repeat
B|---------------|

G|-----|
D|-----|
A|-----|
E|-3-5-|
B|-----|

G|-----0---------|-----0-------------|
D|-2-2---2-0-----|-2-2---2-0---------|
A|-----------3-2-|-----------3h5-3-2-|
E|---------------|-------------------|2x
B|-----------------------------------|

G|-(0)-(2)-|
D|--5---7--|
A|---------|
E|---------|
B|---------|

end on low E
Suggest correction
Give kudos to tab author, rate the tab!
1 2 3 4 5
comments
print report bad tab
guest
You may want to rate the tab now too:
select rating
Wanna post a correction for this tab? Suggest correction