Oops, an error
Loading. Please wait.

Seven Nation Army Tab

version 1
version 1

Whole song

Interactive

22,837 views 12 this week
3 commentsread comments
1 2 3 4 5
please rate
add to favorites
launch autoscroll
font size
0
reset
how to read this tab
guitar tuner
Tab Pro tools
  • play this tab
  • loop segment
  • change instrument
  • show fretboard
  • metronome
×
Best way to learn
"Seven Nation Army"
Autoscroll
slow
fast
+/-
esc
set tempo
stop
-----------------------------------------------------------------------------
                             Audioslave Seven Nation Army
-----------------------------------------------------------------------------
Tabbed by: Kalvin1703
Email: kalvin1703@hotmail.com

Tuning: EADGBE (Standard)

A brilliant White Stripes cover by Audioslave.
PEDALS YOU WILL NEED:

Whammy (1 Octave Up)
Distortion (Keep Distortion turned on right through the song)
Delay (Optional)

     Verse 1
e|------------------------------------------------------------------------|
B|------------------------------------------------------------------------|
G|------------------------------------------------------------------------|
D|------------------------------------------------------------------------|
A|-xxx---xxx---xxx---xxx--------------------------------------------------|X4
E|-xxx---xxx---xxx---xxx--------------------------------------------------|

    Pre Chorus
e|------------------------------------------------------------------------|
B|------------------------------------------------------------------------|
G|------------------------------------------------------------------------|
D|------------------------------------------------------------------------|
A|-55555555/77777777------------------------------------------------------|
E|-33333333/55555555------------------------------------------------------|

    Chorus
e|------------------------------------------------------------------------|
B|------------------------------------------------------------------------|
G|------------------------------------------------------------------------|
D|-9---9-12-9-7-5----4--------9---9-12-9-7-5-7-5--4-----------------------|
A|-7---7-10-7-5-3----2--------7---7-10-7-5-3-5-3--2-----------------------|X2
E|------------------------------------------------------------------------|

e|------------------------------------------------------------------------|
B|------------------------------------------------------------------------|
G|------------------------------------------------------------------------|
D|-----------------------------------------222--Push Whammy Pedal quickly-|
A|-55555555/77777777--2~(hold)-------------222--down then quickly back up-|
E|-33333333/55555555--0~-------------------000--for that last note--------|

      Verse 2
e|------------------------------------------------------------------------|
B|-14--14--14--14~-----14--14--14~-----14--14--14~-------14--14--14~------|
G|-Push Whammy Pedal down for these notes then as soon as the note has----|
D|-finished lift the pedal back up----------------------------------------|
A|------------------------------------------------------------------------|
E|------------------------------------------------------------------------|

    Pre Chorus
e|------------------------------------------------------------------------|
B|------------------------------------------------------------------------|
G|------------------------------------------------------------------------|
D|------------------------------------------------------------------------|
A|-55555555/77777777------------------------------------------------------|
E|-33333333/55555555------------------------------------------------------|


      Chorus
e|------------------------------------------------------------------------|
B|------------------------------------------------------------------------|
G|------------------------------------------------------------------------|
D|-9---9-12-9-7-5----4--------9---9-12-9-7-5-7-5--4-----------------------|
A|-7---7-10-7-5-3----2--------7---7-10-7-5-3-5-3--2-----------------------|X2
E|------------------------------------------------------------------------|

     Solo
(Push Whammy Pedal down for every note)
e|------------------------------------------------------------------------|
B|------------------------------------------------------------------------|
G|-12--14-15-17-15--14----12--14-15-17-15-14-12-10---12--14-15-17-17-19---|
D|------------------------------------------------------------------------|
A|------------------------------------------------------------------------|
E|------------------------------------------------------------------------|

e|-15-15-15-15-15-15-15~--------------------------------------------------|
B|Slowly Push Whammy Pedal down-------15-----------16---------------------|
G|------------------------------12-14----15--13-15----15--18~(hold)-------|
D|--------------------------------------------------------0---------------|
A|------------------------------------------------------------------------|
E|------------------------------------------------------------------------|

e|----18------------------------------------------------------------------|
B|----18------------------------------------------------------------------|
G|----18------------------------------------------------------------------|
D|----0-------------------------------------------------------------------|
A|------------------------------------------------------------------------|
E|------------------------------------------------------------------------|

     Verse 3
e|---(Slighly different from Verse 2)-------------------------------------|
B|-14--14--14--14--14--14--14~-----14--14--14-14--14--14~-----------------|
G|-Push Whammy Pedal down for these notes then as soon as the note has----|
D|-finished lift the pedal back up----------------------------------------|
A|------------------------------------------------------------------------|
E|------------------------------------------------------------------------|

    Pre Chorus
e|------------------------------------------------------------------------|
B|------------------------------------------------------------------------|
G|------------------------------------------------------------------------|
D|------------------------------------------------------------------------|
A|-55555555/77777777------------------------------------------------------|
E|-33333333/55555555------------------------------------------------------|

      Chorus
e|------------------------------------------------------------------------|
B|------------------------------------------------------------------------|
G|------------------------------------------------------------------------|
D|-9---9-12-9-7-5----4--------9---9-12-9-7-5-7-5--4-----------------------|
A|-7---7-10-7-5-3----2--------7---7-10-7-5-3-5-3--2-----------------------|X2
E|------------------------------------------------------------------------|


e|----------------------------------------------------------------------|
B|--------------------------Turn on delay-------------------------------|
G|--------------------------half way through----------------------------|
D|--------------------------this note------2--Push Whammy Pedal quickly-|
A|-55555555/77777777--2~(hold)-------------2--down then quickly back up-|
E|-33333333/55555555--0~-------------------0--for that last note--------|


Any corrections? Please e-mail me :)

| /  slide up
| \  slide down
| h  hammer-on
| p  pull-off
| ~  vibrato
| +  harmonic
| x  Mute note
=============================================================================
comments
We did not receive enough feedback on this tab! Please rate:
print report bad tab
1 2 3 4 5
3 comments total.
0 reply
Maitinin wrote on March 30 2009, 10:27 am

http://www.youtube.com/watch?v=ZmVPD1qak2c

0 reply
longman101 wrote on December 21 2009, 04:38 pm

the solo is completely wrong

0 reply
davidstar wrote on August 19 2011, 04:21 am

solo is wrong. he plays in 2oct up

I want to post or [tab]
guest
You may want to rate the tab now too:
select rating
Please do not post tabs as comments. Select "correction" instead!