Oops, an error
Loading. Please wait.

Shadow On The Sun Tab

version 1
version 1

Solo

Whole song

Interactive

5,624 views 6 this week
2 commentsread comments
1 2 3 4 5
1 last vote to show rating
add to favorites
launch autoscroll
font size
0
reset
how to read this tab
guitar tuner
Autoscroll
slow
fast
+/-
esc
set tempo
stop
Help us to improve Ultimate-Guitar.com Take our survey!
×
Author
Difficulty
intermediate
Audioslave - Shadow on the sun live
Solo by Tom Morello.

This solo is a live perfomance of Audioslave, it has been already in a
review here in UG, as one of the best gibson's les paul solo.


e|----------------------------------------------7------9brbrbr~~------------|
B|----------10--7---5~------------------10-7-10---10-7----------------------|
G|-4--/7-------------------/2-4-4--/7---------------------------------------|
D|--------------------------------------------------------------------------|
A|--------------------------------------------------------------------------|
E|--------------------------------------------------------------------------|

e|-7-9-10-12-10-9-10-9-------9-10-12-9~---9-10-12-10-9-10-9------9-10-12----|
B|--------------------10-----------------------------------10-----------12~-|
G|----------------------11-----------------------------------11-------------|
D|--------------------------------------------------------------------------|
A|--------------------------------------------------------------------------|
E|--------------------------------------------------------------------------|

e|-9-10-12\---/10-12--14\---/12-14--17\-------------------------------------|
B|--------------------------------------------------------------------------|
G|--------------------------------------------------------------------------|
D|--------------------------------------------------------------------------|
A|--------------------------------------------------------------------------|
E|--------------------------------------------------------------------------|


/| slide in direction of the body
\| slide in direction of the headstock
b| bend
r| release bend
~| hold note for a while

Well, the rest of the solo, just IMPROVISE. I couldn't figure out.

Edit nº1: I've changed a little the second part, soon you'll have the third part of the solo!
Edit nº2: Fixed some minor details to make it perfect.
Suggest correction
Give kudos to tab author, rate the tab!
1 2 3 4 5
comments
print report bad tab
2 comments total.
0 reply
Wings777 10 Jul 08, 2008 04:59 PM

i think this is ok but it's a little off..
i could be hearing it wrong i guess but i think there are more notes in the intro to the solo.

like the first line, after the slide to seven, there are 5 notes afterward, not 3. if anyone knows where i can get a perfect tab for this solo don't hessitate to let me know.

0 reply
joboffersforyoutoday 10 Oct 16, 2015 02:19 PM

Did anyone find a perfect tab for this ?

guest
You may want to rate the tab now too:
select rating
Wanna post a correction for this tab? Suggest correction