Oops, an error
Loading. Please wait.

Shadow On The Sun Bass Tab

version 2
version 2

Whole song

Interactive

3,799 views 3 this week
1 commentread comment
1 2 3 4 5
please rate
add to favorites
launch autoscroll
font size
0
reset
guitar tuner
Tab Pro tools
  • play this tab
  • loop segment
  • change instrument
  • show fretboard
  • metronome
×
Best way to learn
"Shadow On The Sun"
Autoscroll
slow
fast
+/-
esc
set tempo
stop
Contributor
Tuning
B F# B E G# C#
-------------------------------------------------------------------------------
			     SHADOW ON THE SUN - Audioslave
-------------------------------------------------------------------------------

Tabbed By : Kevin

Tuning: Drop B

I'm pretty sure he plays this with a five string bass but i don't have one
so this is how the song is played on a four string.

intro/verse:
G|------|-----------------------------|
D|------|-/9-9-9-9-9------------------|x7
A|-7b-5-|-----------------------------|
B|------|--------------0---0--0-0-3-5-|

G|-----------------------------|
D|-/9-9-9-9-9------------------|
A|-----------------------------|
B|--------------0--------3-7-3-|

chorus:
G|------------------------|   |------------------------|    
D|------------------------|x3 |------------------------|
A|------------------------|   |---------0--------------|
B|-5---3---0--------3-7-3-|   |-5---3------------------|

pre-verse:
G|----------------------|
D|----------------------|x4
A|-2-2-2-2-2------------|
B|-------------0--------|

verse:
G|------|-----------------------------|
D|------|-/9-9-9-9-9------------------|x7
A|-7b-5-|-----------------------------|
B|------|--------------0---0--0-0-3-5-|

G|-----------------------------|
D|-/9-9-9-9-9------------------|
A|-----------------------------|
B|--------------0--------3-7-3-|

chorus:
G|------------------------|   |---------------------------|    
D|------------------------|x3 |---------------------------|
A|------------------------|   |---------------------------|
B|-5---3---0--------3-7-3-|   |-5---3---3-5-7-5---3-5-3-0-|

G|------------------------|   |------------------------|    
D|------------------------|x3 |------------------------|
A|------------------------|   |---------0--------------|
B|-5---3---0--------3-7-3-|   |-5---3------------------|

solo:
G|-----------------------------------------------------------------|
D|-----------------------------------------------------------------|
A|-2-2-2-2-2-2-2-2-2-2-2-2-2-2-2-2-0-0-0-0-0-0-0-0-0-0-0-0-0-0-0-0-|
B|-----------------------------------------------------------------|

G|-----------------------------------------------------------------|
D|-0-0-0-0-0-0-0-0-0-0-0-0-0-0-0-0-----------------------------0---|
A|---------------------------------2-2-2-2-2-2-2-2-2-2-----0-2-----|
B|-----------------------------------------------------5-7---------|

G|-----------------------------------------------------------------|
D|-----------------------------------------------------------------|
A|-2-2-2-2-2-2-2-2-2-2-2-2-2-2-2-2-0-0-0-0-0-0-0-0-0-0-0-0-0-0-0-0-|
B|-----------------------------------------------------------------|

G|-----------------------------------------------------------------|
D|-0-0-0-0-0-0-0-0-0-0-0-0-0-0-0-0-2-2-2-2-2-2-2-2-2-2-2-2-2-2-2-2-|
A|-----------------------------------------------------------------|
B|-----------------------------------------------------------------|

G|------------------------|   |------------------------|    
D|------------------------|x3 |------------------------|
A|------------------------|   |------------------------|
B|-5---3---0--------3-7-3-|   |-5---3---0--------------|

verse:
G|-----------------------------------------------------------------|
D|-----------------------------------------------------------------|
A|-2-2-2-2-2-2-2-2-2-2-2-2-2-2-2-2-0-0-0-0-0-0-0-0-0-0-0-0-0-0-0-0-|
B|-----------------------------------------------------------------|

G|-----------------------------------------------------------------|
D|-0-0-0-0-0-0-0-0-0-0-0-0-0-0-0-0---------------------------------|
A|---------------------------------2-2-2-2-2-2-2-2-2-2-2-2-2-2-2-2-|
B|-----------------------------------------------------------------|

G|-----------------------------------------------------------------|
D|-----------------------------------------------------------------|
A|-2-2-2-2-2-2-2-2-2-2-2-2-2-2-2-2-0-0-0-0-0-0-0-0-0-0-0-0-0-0-0-0-|
B|-----------------------------------------------------------------|

G|-----------------------------------------------------------------|
D|-0-0-0-0-0-0-0-0-0-0-0-0-0-0-0-0---------------------------------|
A|---------------------------------2-2-2-2-2-2-2-2-2-2-2-2-2-2-2-2-|
B|-----------------------------------------------------------------|

G|-----------------------------------------------------------------|
D|-----------------------------------------------------------------|
A|-2-2-2-2-2-2-2-2-2-2-2-2-2-2-2-2-0-0-0-0-0-0-0-0-0-0-0-0-0-0-0-0-|
B|-----------------------------------------------------------------|

G|-----------------------------------------------------------------|
D|-0-0-0-0-0-0-0-0-0-0-0-0-0-0-0-0-2-2-2-2-2-2-2-2-2-2-2-2-2-2-2-2-|
A|-----------------------------------------------------------------|
B|-----------------------------------------------------------------|

chorus:
G|------------------------|   |---------------------------|    
D|------------------------|x3 |---------------------------|
A|------------------------|   |---------------------------|
B|-5---3---0--------3-7-3-|   |-5---3---3-5-7-5---3-5-3-0-|

G|------------------------|   |------------------------|    
D|------------------------|x3 |------------------------|
A|------------------------|   |------------------------|
B|-5---3---0--------3-7-3-|   |-5---3---0--------------|

long rest

outro:
G|---------------------------------------------------------|
D|---------------------------------------------------------|x6
A|-------------0--2------------------------0--2------------|
B|-12\-3--5--0-------0-3--5--0-12\-3--5--0-------0-3--5--0-|

G|---------------------------------------------------------|
D|---------------------------------------------------------|
A|---------------------------------------------------------|
B|-3-0-3-0-3-0-3-0-3-0-3-0-3-0-3-0-3-0-3-0-3-0-3-0-3-0-3-0-|

| /  slide up
| \  slide down
| h  hammer-on
| p  pull-off
| ~  vibrato
| +  harmonic
| x  Mute note
===============================================================================
comments
We did not receive enough feedback on this tab! Please rate:
print report bad tab
1 2 3 4 5
1 comment total.
+1 reply
Zaqq wrote on July 31 2012, 06:22 am

Never seen Timmy C playing a five string. So, right, it should be 4 string tuned BADG (as in Gasoline, for instance).

I want to post or [tab]
guest
You may want to rate the tab now too:
select rating
Please do not post tabs as comments. Select "correction" instead!